Oops, an error
Loading. Please wait.

Magasin bass

version 3
version 3

Interactive

11,726 views 21 this week
3 commentsread comments
1 2 3 4 5
x 3
add to favorites
×
Save as Personal and add changes to this tab that will be seen only by you. Learn more ›
×
You can save this tab as Personal to edit and correct it or add notes. All changes will be seen only by you. Learn more »
launch autoscroll
font size
0
reset
guitar tuner
edit
Autoscroll
slow
fast
+/-
esc
set tempo
stop
Author
-------------------------------------------------------------------------------
			     Magasin - Eraserheads
-------------------------------------------------------------------------------

Tabbed By : Anthony James
e-mail: metal10212004@yahoo.com


Tuning: Standard Tuning
        EADG
 Intro
G|-------------------|-------------------|
D|-------------------|-------------------|
A|--3-3-3-3-3-3-3-3--|-------------------|
E|-------------------|--0-0-0-0-0-0-0-0--|
  Ooooohhh...

G|-------------------|-------------------|
D|-------------------|-------------------|
A|-------------------|-------------------|
E|--5-5-5-5-5-5-5-5--|--1-1-1-1-1-1-1-1--|
  Ooohhhh.....

Verse I
Time Signature: 4/4
G|-------------------|-------------------|------------------|
D|-------------------|--2------2------2--|------------------|
A|--3------3------3--|-------------------|------------------|
E|-------------------|-------------------|--5------5-----5--|
  Kita kita            sa isang magasin.......
  
G|-------------------|
D|-------------------|
A|-------------------|
E|--1------1------1--|
  Buhok mo'y green
  
Fill
G|--------------------|
D|-------2------------|
A|--2h3------5------7-|
E|--------------------|

Verse II
G|-------------------|-------------------|------------------|
D|-------------------|--2------2------2--|------------------|
A|--3------3------3--|-------------------|------------------|
E|-------------------|-------------------|--5------5-----5--|
  Naaalala mo pa ba....................
  
G|-------------------|
D|-------------------|
A|-------------------|
E|--1------1------1--|
  sisikat ka

G|---------------------------------------|
D|---------------------------------------|
A|---------------------------------------|
E|--1-1-1-1-1-1-1-1-1-1-1-1-1-1-1-1------|
  ngunit ngayon..........hey


G|-------------------|-------------------|-------------------|
D|-------------------|--2-2-2-2-2-2-2-2--|-------------------|
A|--3-3-3-3-3-3-3-3--|-------------------|-------------------|
E|-------------------|-------------------|--5-5-5-5-5-5-5-5--|
Iba na 'yong ngiti  iba na ang yong tingin............

G|-------------------|
D|-------------------|
A|-------------------|
E|--1-1-1-1-1-1-1-1--|
Sa'yoooohhh

Fill
G|--------------------|
D|-------2------------|
A|--2h3------5------7-|
E|--------------------|

Verse III
G|-------------------|-------------------|------------------|
D|-------------------|--2------2------2--|------------------|
A|--3------3------3--|-------------------|------------------|
E|-------------------|-------------------|--5------5-----5--|
  Siguro ay may kotse ka na ngayon...........
  
G|-------------------|
D|-------------------|
A|-------------------|
E|--1------1------1--|
  Damit mo'y gawa ni Sotto

G|-------------------------------------|
D|-------------------------------------|
A|-------------------------------------|
E|--1-1-1-1-1-1-1-1-1-1-1-1-1-1-1-1-1--|
  Wide Universe.....kasi

Repeat Chorus except last two lines
Adlib ( do notes on chorus )

Verse IV
G|-------------------|-------------------|------------------|
D|-------------------|--2------2------2--|------------------|
A|--3------3------3--|-------------------|------------------|
E|-------------------|-------------------|--5------5-----5--|
  Nakita kita sa isang magasin..........
  
G|-------------------|
D|-------------------|
A|-------------------|
E|--1------1------1--|
  di ko napansin..

G|-------------------------------------|
D|-------------------------------------|
A|-------------------------------------|
E|--1-1-1-1-1-1-1-1-1-1-1-1-1-1-1-1-1--|
  Katotohanan............

Repeat chorus except last two lines

Verse V
G|-------------------|-------------------|------------------|
D|-------------------|--2------2------2--|------------------|
A|--3------3------3--|-------------------|------------------|
E|-------------------|-------------------|--5------5-----5--|
  Nasaan ka na kaya.......
  
G|-------------------------------------|
D|-------------------------------------|
A|-------------------------------------|
E|--1-1-1-1-1-1-1-1-1-1-1-1-1-1-1-1-1--|
  Centerfold ka na......

G|-------------------|-------------------|-------------------|
D|-------------------|--2-2-2-2-2-2-2-2--|-------------------|
A|--3-3-3-3-3-3-3-3--|-------------------|-------------------|
E|-------------------|-------------------|--5-5-5-5-5-5-5-5--|

G|-------------------|
D|-------------------|
A|-------------------|
E|--1-1-1-1-1-1-1-1--|

G|-------------------|-------------------|-------------------|
D|-------------------|--2-2-2-2-2-2-2-2--|-------------------|
A|--3-3-3-3-3-3-3-3--|-------------------|-------------------|
E|-------------------|-------------------|--5-5-5-5-5-5-5-5--|
 Hoooooooooooooo...........Hhooohoooo..............

G|-------------------|-------------------|
D|-------------------|-------------------|
A|-------------------|--3-3-3-3-3-3-3-3--|
E|--1-1-1-1-1-1-1-1--|-------------------|
  hooooooooooooooo

G|-----|
D|-----|
A|--3--|
E|-----|

            
            
Suggest correction
Creating personal tab
Creating personal tab
You can edit any tab online and save it as your Personal.

You can edit, replace or remove any tab part or add personal notes – all changes will be seen only by you.

Personal tabs can be accessed anytime from any device, even offline.
Learn more »
Give kudos to tab author, rate the tab!
1 2 3 4 5
comments
print report bad tab
3 comments total.
0 reply
cabeza 277 May 24, 2007 01:45 AM

tol parang akin 'to ah

0 reply
lloydrowell 30 Feb 18, 2009 01:29 AM

Intro
G|-------------------|-------------------|
D|-------------------|-------------------|
A|--3-3-3-3-3-3-3-3--|--7-7-7-7-7-7-7-7--|
E|-------------------|-------------------|
Ooooohhh...

G|-------------------|-------------------|
D|-------------------|-------------------|
A|-------------------|-------------------|
E|--5-5-5-5-5-5-5-5--|--1-1-1-1-1-1-1-1--|
Ooohhhh.....

0 reply
eheads22 72 Jun 02, 2009 05:15 AM

mali ung fill... ang pagkakarinig ko sa 1st verse

ung fill nun dpt sa E-string.. |------10/11-10---|

guest
You may want to rate the tab now too:
select rating
Wanna post a correction for this tab? Suggest correction