Oops, an error
Loading. Please wait.

Magasin bass

version 6
version 6

Interactive

1,537 views 18 this week
no commentswrite comment
1 2 3 4 5
3 more votes to show rating
add to favorites
×
Save as Personal and add changes to this tab that will be seen only by you. Learn more ›
×
You can save this tab as Personal to edit and correct it or add notes. All changes will be seen only by you. Learn more »
launch autoscroll
font size
0
reset
guitar tuner
edit
Autoscroll
slow
fast
+/-
esc
set tempo
stop
Author
Difficulty
===============================================================================
                             Magasin - Eraserheads
===============================================================================
Tabbed by: Joshua Imperial
Facebook: http://www.facebook.com/BassistJosh 
Pa Rate po ng gawa ko! :)

Intro
G|---------------------------------------------------------------------------|
D|-------------------------------7-7-7--7-7/3----3-3-3------3-3--------------|
A|---3-3-3---3-3/7--7-7-7--7-7-----------------------------------------------|
E|---------------------------------------------------------------------------|

Do this after "Napatingin, natulala sayong kagandahan"
G|---------------------------------------------------------------------------|
D|------------------3--------2-----------------------------------------------|
A|--------------------------------3------------------------------------------|
E|-------------------------------------1-------------------------------------|

Verse I
G|---------------------------------------------------------------------------|
D|-------------------------------7-7-7--7-7/3----3-3-3------3-3--------------| 2x
A|---3-3-3---3-3/7--7-7-7--7-7-----------------------------------------------|
E|---------------------------------------------------------------------------|

Chorus
G|---------------------------------------------------------------------------|
D|-------------------------------7-7-7--7-7/3----3-3-3------3-3--------------| 2x
A|---3-3-3---3-3/7--7-7-7--7-7-----------------------------------------------|
E|---------------------------------------------------------------------------|

"Pambili...... oooohh ... Pambili sa muka mong maganda"
G|---------------------------------------------------------------------------|
D|---------------------------------------------------------------------------|
A|----------10------11-------12----------8-----------------------------------|
E|---------------------------------------------------------------------------|
Do this after
G|---------------------------------------------------------------------------|
D|------------------3--------2-----------------------------------------------|
A|--------------------------------3------------------------------------------|
E|-------------------------------------1-------------------------------------|

Verse II
"Siguro ay may kotse ka na ngayon"
G|---------------------------------------------------------------------------|
D|-------------------------------7-7-7--7-7/3----3-3-3------3-3--------------| 2x
A|---3-3-3---3-3/7--7-7-7--7-7-----------------------------------------------|
E|---------------------------------------------------------------------------|

Chorus
G|---------------------------------------------------------------------------|
D|-------------------------------7-7-7--7-7/3----3-3-3------3-3--------------| 2x
A|---3-3-3---3-3/7--7-7-7--7-7-----------------------------------------------|
E|---------------------------------------------------------------------------|

Adlib
G|---------------------------------------------------------------------------|
D|-------------------------------7-7-7--7-7/3----3-3-3------3-3--------------| 2x
A|---3-3-3---3-3/7--7-7-7--7-7-----------------------------------------------|
E|---------------------------------------------------------------------------|

Verse III
"Nakita kita sa isang magasin at sa sobrang gulat di ko napansin"
G|---------------------------------------------------------------------------|
D|-------------------------------7-7-7--7-7/3----3-3-3------3-3--------------| 2x
A|---3-3-3---3-3/7--7-7-7--7-7-----------------------------------------------|
E|---------------------------------------------------------------------------|

Chorus
G|---------------------------------------------------------------------------|
D|-------------------------------7-7-7--7-7/3----3-3-3------3-3--------------| 4x
A|---3-3-3---3-3/7--7-7-7--7-7-----------------------------------------------|
E|---------------------------------------------------------------------------|

"Pambili...... oooohh ... Pambili sa muka mong maganda"
G|---------------------------------------------------------------------------|
D|---------------------------------------------------------------------------|
A|----------10------11-------12----------8-----------------------------------|
E|---------------------------------------------------------------------------|


"Sana sa susunod na isyu ay centerfold" (Gawin pagkatapos nito.. mabilis po sya)
G|---------8h9----8----------------------------------------------------------|
D|---------------------9-----------------------------------------------------|
A|------------------------9------6h7------6----------------------------------|
E|-----------------------------------------------7------0--------------------|

G|---------------------------------------------------------------------------|
D|-------------------------------7-7-7--7-7/3----3-3-3------3-3--------------| 2x
A|---3-3-3---3-3/7--7-7-7--7-7-----------------------------------------------|
E|---------------------------------------------------------------------------|

| /  slide up
| \  slide down
| h  hammer-on
| p  pull-off
| ~  vibrato
| +  harmonic
| x  Mute note
===============================================================================
Suggest correction
Creating personal tab
Creating personal tab
You can edit any tab online and save it as your Personal.

You can edit, replace or remove any tab part or add personal notes – all changes will be seen only by you.

Personal tabs can be accessed anytime from any device, even offline.
Learn more »
Give kudos to tab author, rate the tab!
1 2 3 4 5
comments
print report bad tab
guest
You may want to rate the tab now too:
select rating
Wanna post a correction for this tab? Suggest correction