Oops, an error
Loading. Please wait.

Overdrive Tab

version 1
version 1

Whole song

Interactive

27,367 views 21 this week
no commentswrite comment
1 2 3 4 5
x 9
add to favorites
launch autoscroll
font size
0
reset
how to read this tab
guitar tuner
×
Best way to learn
"Overdrive"
Autoscroll
slow
fast
+/-
esc
set tempo
stop
[Verse]
Eb|-----------------|----------------|-----------------|-------------------|
Bb|--------0--------|-------0--------|--------0--------|----------0--------|
Gb|----2-------2----|---1-----1---1--|----2-----2---2--|------1-----1---1--|
Db|--2---2---2---2--|-2---2-----2----|--4---4-----4----|--4\2---2-----2----|
Ab|-----------------|----------------|-----------------|-------------------|
Eb|-----------------|----------------|-----------------|-------------------|

Eb|-----------------|-----------------|----------------|-------------------|
Bb|--------0--------|-------0---------|-------0--------|----------0--------|
Gb|----2-----2---2--|---1------1---1--|---2-----2---2--|------1-----1---1--|
Db|--2---2-----2----|-2---2------2----|-4---4-----4----|--4\2---2-----2----|
Ab|-----------------|-----------------|----------------|-------------------|
Eb|-----------------|-----------------|----------------|-------------------|

Eb|-----------------|-----------------|----------------|-------------------|
Bb|-----------------|--------2--------|--------3-------|--------2----------|
Gb|--------3--4---4-|----3-----3---3--|----4-----4---4-|----3-----3---3----|
Db|----4--------4---|------4-----4----|------4-----4---|------4-----4------|
Ab|--2---4----------|-----------------|--2-------------|-------------------|
Eb|-----------------|--2--------------|----------------|--2----------------|

Eb|--------2--------|--------2--------|----------------|--0----------------|
Bb|--------3--------|--------2--------|--------3-------|--0----------------|
Gb|----4-----4---4--|----3------3---3-|----4-----4---4-|--1----------------|
Db|------4-----4----|------4------4---|------4-----4---|--2----------------|
Ab|--2--------------|-----------------|--2-------------|-------------------|
Eb|-----------------|--2--------------|----------------|-------------------|

Eb|--------0--------------0--------------0--------------0--------|
Bb|----0---0-0---0----0---0-0---0----0---0-0---0--------0-0---0--|
Gb|--2-2-2---2-2-2--1-1-1-1-1-1-1--2-2-2---2-2-2--2\1-1---1-1-1--|
Db|--2---2---2-2----2---2-----2----4---4-----4----4\2-2-----2----|
Ab|--------------------------------------------------------------|
Eb|--------------------------------------------------------------|

Eb|--------2---------------2---------------------2-----2---------|
Bb|----3---3---------------2-2---2--3---3--------3-2-3-3---------|
Gb|--4-4-4---3---3--4-3-3----3-3-3--4-4-4--4-3-3---3-4-----------|
Db|--4---4---4-4-4--4----------4------4-4--4---------------------|
Ab|------------4-4-----------------------------------------------|
Eb|--------------------------------------------------------------|

Eb|--0--------0--------------0--------------0--------------------|
Bb|--0----0-0-0-0-0-0----0---0-0---0----0---0-0---0--------------|
Gb|--1--2-2-2-2-2-2-2--1-1-1---1-1-1--2-2-2---2-2-2--------------|
Db|--2--2-2-2-2-2-2----2---2-----2-2--4---4-----4----------------|
Ab|-----0--------------2---------2----4--------------------------|
Eb|--------------------0-----------------------------------------|

Eb|--------0-----0--------2--------------2--------------2----------|
Bb|--0-0---0-0-0-0----3-3-3-3---3--------2-2---2----3-3-3-3-3---3--|
Gb|--1-1-1---1-1-1--4-4-4-4-4-4-4----3-3-3-3-3-3--4-4-4-4-4-4-4-4--|
Db|--2-2-2-----2-2--4-4-4---4-4-4--4-4-4---4-4-4--4-4-4---4-4-4-4--|
Ab|--2--------------2---------2----4-4-4-----4----2----------------|
Eb|--0-----------------------------2-------------------------------|

Eb|--------2-------|--0--0---------------|-----------------------|
Bb|----2-2-2-2---2-|--0--1---------------|-----------------------|
Gb|--3-3-3-3-3-3-3-|--1--2--2p1---2p1----|--2--------------------|
Db|--4-4-4---4-4-4-|--2--2------2-----2--|-----------------------|
Ab|--4---------4---|--2--0---------------|-----------------------|
Eb|--2-------------|--0------------------|-----------------------|

Eb|----------|--------2--------|--------2------------------------|
Bb|----------|----3---3-3---3--|--------2-2---2------------------|
Gb|--4-4--3--|--4-4-4---4-4-4--|--4-3-3---3-3-3------------------|
Db|--4----4--|--4---4-----4----|--4---4-----4--------------------|
Ab|----------|--2--------------|---------------------------------|
Eb|----------|-----------------|---------------------------------|

Eb|--------2--------|--------2------|--------2--------|--0------|
Bb|----3---3-3---3--|--------2-2-2--|----3---3-3-4-3--|--0------|
Gb|--4-4-4---4-4-4--|--4p3-3---3-3--|--4-4-4---4-4-4--|--1------|
Db|--4---4-----4----|--4---4--------|--2---4----------|--2------|
Ab|--2--------------|---------------|--2--------------|--2------|
Eb|-----------------|---------------|-----------------|--0------|

Eb|--------5------|--------4--------|--------2-----|--0-0-0-----0--|
Bb|--5-----5-5-5--|--5-5-5-5-5---5--|----2-2-2-2-2-|--0-0-0-0-0-0--|
Gb|--6-6-6-6-6-6--|--6-6-6-6-6-6-6--|--2-2-2-2-2-2-|--1-1-1-1-1-1--|
Db|--7-7-7---7-7--|--6-6-6---6-6-6--|--4-4-4---4-4-|--2-2---2-2-2--|
Ab|---------------|--4---------4----|--4-4-------4-|--2------------|
Eb|--5-------5----|-----------------|--2-----------|--0------------|

Eb|--------5--------|--------4-------|--2-----2-------|--0-0-0-0-----0--|
Bb|--5-----5-5-5-5--|--5-5-5-5-5---5-|--2-2-2-2-2---2-|--0-0-0-0-0-0-0--|
Gb|----6-6-6-6-6-6--|--6-6-6-6-6-6-6-|--2-2-2-2-2---2-|--1-1-1-1-1-1-1--|
Db|--7-7-7-7-7-7-7--|--6-6-6---6-6-6-|--4-4-4---4---4-|--2-2-----2-2----|
Ab|-----------------|--4---------4---|--4---------4---|--2---------2----|
Eb|--5---------5----|----------------|--2-------------|--0---------0----|

Eb|--0--|---------------|-----|
Bb|--0--|---------------|-----|
Gb|--2--|--2p1---2p1----|--2--|
Db|--2--|------2-----2--|-----|
Ab|--0--|---------------|-----|
Eb|-----|---------------|-----|



************************************

| b  Bend
| \  Slide down
| p  Pull-off

************************************
Suggest correction
comments
print report bad tab
guest
You may want to rate the tab now too:
select rating
Wanna post a correction for this tab? Suggest correction