Oops, an error
Loading. Please wait.

Pare Ko bass

version 3
version 3

Whole song

Interactive

3,609 views 9 this week
1 commentread comment
1 2 3 4 5
x 3
add to favorites
×
Save as Personal and add changes to this tab that will be seen only by you. Learn more ›
×
You can save this tab as Personal to edit and correct it or add notes. All changes will be seen only by you. Learn more »
launch autoscroll
font size
0
reset
guitar tuner
edit
Autoscroll
slow
fast
+/-
esc
set tempo
stop
Author
Song: Pare Ko
Band: Eraserheads
Album: Ultraelectromanetic Pop
Tabbed by: Gio Agudo


Verse II:
G|-----|-----|-----------|-----|
D|-----|-----|-----------|-----|
A|-----|-3~--|-3-2-0-----|-3~--|
E|-3~--|-----|-------3~--|-----|

G|-------------|-----|-----------|----|
D|-------------|-----|-----------|----|
A|-3-2-0h2-----|-3~--|-3-2-0-----|-3~-|
E|---------3~--|-----|-------3~--|----|


Refrain II:
G|-----|-------|-------------|-------|-------|
D|-----|-------|-------------|-------|-------|
A|-0~--|-0-3~--|-3-2-0h2-0~--|-0-3~--|-3-5~--|
E|-----|-------|-------------|-------|-------|


Chorus:
G|------|----------|------------|---|-------|
D|------|----------|----------5-|---|-------|
A|------|-----5-55-|-5-6-77-----|-5-|-3-2-0-|
E|-3-33-|-3-5------|--------7---|---|-------|

G|------|----------|------------|---|-------|
D|------|----------|----------5-|---|-------|
A|------|-----5-55-|-5-6-77-----|-5-|-3-2-0-|
E|-3-33-|-3-5------|--------7---|---|-------|

G|------|----------|------------|---|-------|
D|------|----------|----------5-|---|-------|
A|------|-----5-55-|-5-6-77-----|-5-|-3-2-0-|
E|-3-33-|-3-5------|--------7---|---|-------|

G|------|----------|------------|---|-------|
D|------|----------|----------5-|---|-------|
A|------|-----5-55-|-5-6-77-----|-5-|-3-2-0-|
E|-3-33-|-3-5------|--------7---|---|-------|

G|------|----------|------------|---|-------|
D|------|----------|----------5-|---|-------|
A|------|-----5-55-|-5-6-77-----|-5-|-3-2-0-|
E|-3-33-|-3-5------|--------7---|---|-------|


Interlude:
G|------|----------|------------|---|-------|
D|------|----------|----------5-|---|-------|
A|------|-----5-55-|-5-6-77-----|-5-|-3-2-0-|
E|-3-33-|-3-5------|--------7---|---|-------|

G|------|----------|------------|---|-------|
D|------|----------|----------5-|---|-------|
A|------|-----5-55-|-5-6-77-----|-5-|-3-2-0-|
E|-3-33-|-3-5------|--------7---|---|-------|

Verse III:
G|------------------------------|
D|-------------------55----55---|
A|--------------3-33----33----0-|
E|-3-33-33-33-5-----------------|

G|------------------------------|
D|-------------------55----55---|
A|--------------3-33----33----0-|
E|-3-33-33-33-5-----------------|

G|------------------------------|
D|-------------------55----55---|
A|--------------3-33----33----0-|
E|-3-33-33-33-5-----------------|

G|------------------------------|
D|-------------------55----55---|
A|--------------3-33----33----0-|
E|-3-33-33-33-5-----------------|


Refrain III:
G|-----|-------|-----------|-------|----------|
D|-----|-------|-----------|-------|----------|
A|-----|---3~--|-3-2-0-----|---3~--|-/5555555-|
E|-5~--|-5-----|-------5~--|-5-----|----------|


Bridge:
G|------|--------|--------|----------|
D|------|--------|--------|----------|
A|------|---3-33-|-0------|-----5-55-|
E|-5-55-|-5------|---3-33-|-3h5------|

G|------|--------|--------|-----------|
D|------|--------|--------|---------9-|
A|------|---3-33-|-0------|-----7h9---|
E|-5-55-|-5------|---3-33-|-3h5-------|

G|------|--------|--------|----------|
D|------|--------|--------|----------|
A|------|---3-33-|-0------|-----5-55-|
E|-5-55-|-5------|---3-33-|-3h5------|


Verse IV:
G|------------------------------|
D|-------------------55----55---|
A|--------------3-33----33----0-|
E|-3-33-33-33-5-----------------|

G|-----------------------------|
D|-----------------------------|
A|--------------3-33-3/5\3-2-0-|
E|-3-33-33-33-5----------------|

G|------------------------------|
D|-------------------55----55---|
A|--------------3-33----33----0-|
E|-3-33-33-33-5-----------------|

G|------------------------------|
D|-------------------55----55---|
A|--------------3-33----33----0-|
E|-3-33-33-33-5-----------------|


Refrain IV:
G|---------|---------|---------|--------|---------|
D|---------|---------|---------|----333-|-----333-|
A|-------5-|-3-2-0---|-------5-|-33-----|-5-7-----|
E|-5-7-8---|-------3-|-5-7-8---|--------|---------|


Repeat Chorus 3x...


Outro:
G|-----|------|-----|
D|-----|------|-----|
A|-3-x-|--2-x-|-----|
E|-----|------|-3~--|

            
            
Suggest correction
Creating personal tab
Creating personal tab
You can edit any tab online and save it as your Personal.

You can edit, replace or remove any tab part or add personal notes – all changes will be seen only by you.

Personal tabs can be accessed anytime from any device, even offline.
Learn more »
Give kudos to tab author, rate the tab!
1 2 3 4 5
comments
print report bad tab
1 comment total.
+1 reply
mana_drain 541 Dec 30, 2008 05:10 AM

Tignan mo yung sa akin... yung version 2... tamang - tama yun...

guest
You may want to rate the tab now too:
select rating
Wanna post a correction for this tab? Suggest correction