Oops, an error
Loading. Please wait.

Shake Yer Head bass

370 views 3 this week
no commentswrite comment
1 2 3 4 5
3 more votes to show rating
add to favorites
×
Save as Personal and add changes to this tab that will be seen only by you. Learn more ›
×
You can save this tab as Personal to edit and correct it or add notes. All changes will be seen only by you. Learn more »
launch autoscroll
font size
0
reset
guitar tuner
edit
Autoscroll
slow
fast
+/-
esc
set tempo
stop
Author
-------------------------------------------------------------------------------
                             SHAKE YER HEAD - Eraserheads
-------------------------------------------------------------------------------
Tabbed by: Darwin abaigar tanchingco
E-mail: tanchingco_darwin@yahoo.com

from the album "ultraelectromagneticpop"

Tuning:  standard tunning E,A,D,G


VERSE 1

I was born, upside down
I felt my grandma put my feet on the groun
They put a spoon, in my mouth And everyone was shocked to hearme shout...
G|---------------------------------------------------------------|
D|---------------------------------------------------------------|
A|---------------------------------------------------------------|
E|---------------------------------------------------------------|

PRE CHORUS

Well I knew I couldn't take alL the dog food that they make
I'd just as soon as put myself on a stake and burn...
G|---------------------------------------------------------------|
D|---------------------------------------------------------------|
A|---------------------------------------------------------------|
E|---------------------------------------------------------------|

CHORUS 1

I saw it comin' around,I saw it comin' around, yeah...
G|---------------------------------------------------------------|
D|---------------------------------------------------------------|
A|---------------------------------------------------------------|
E|-------------------------------------------------0-0-4-0-2-----|

I saw it comin' around,So I just, yeah
Shook my head and walked away...
G|---------------------------------------------------------------|
D|---------------------------------------------------------------|
A|---------------------------------------------------------------|
E|---------------------------------------------------------------|

INTERLUDE

G|------------------------------------------------------------------------|
D|---------------------------------------------5-5------------------------|
A|--5/12----------------------7----7-9------------------------7—7/9--11---|
E|------------5---5-5-5----7h9---9----------5------5-5-----7h9------------|

VERSE 2

I grew up, in a town
Where everybody tried to push me around...
G|--------------------------------------------------------------|
D|--------------------------------------------------------------|
A|-------------------7----7-9-----------------------7----7-9----|
E|---5---5-5-5----7h9---9----------5---5-5-5-----7h9---9--------|

The girls were alright, but the guys were tough
They're always buggin' me with macho stuff...
G|--------------------------------------------------------------|
D|--------------------------------------------------------------|
A|-------------------7----7-9-----------------------7----7-9----|
E|---5---5-5-5----7h9---9----------5---5-5-5-----7h9---9--------|

PRE CHORUS 2

Well, I ain't no stupid fighter, I go for flower power
I've been running every race just to save my face, yeh...
G|------------------------------------------------------------------------|
D|-----------------------4-5-5-6-6-7-------------------------4-5-5-6-6-7--|
A|-----4-5-5-6-6-7---5-5-------------------4-5-5-6-6-7---5-5--------------|
E--5-5---------------------------------5-5--------------------------------|

CHORUS 

I saw it comin' around,I saw it comin' around, yeah...
G|-------------------------------------------------------------------|
D|-------------------------------------------------------4-5-5-6-6-7-|
A|----------------5---7--------------------4-4-------4-5-------------|
E|--5---5-5-5-------------0-0-4-0-2----2---------2-------------------|

I saw it comin' around,So I just, yeah
Shook my head and walked away...
G|---------------------------------------------------------|
D|---------------------------------------------------------|
A|------------------5---7---7-7-7------5~---------8~-------|
E|---5---5-5-5---------------------------------------------|

SOLO
G|--------------------------------------------------------------------|
D|--------------------------------------------------------2--2--2-----|
A|-----4-5-5-6-6-7------------------------4-5-5-6-6-7-----------------|
E|-5-5---------------0-0-4-7-7h9-7----5-5---------------------------0-|


BRIDGE

Well, they try to see if you care,It's just a matter of not  
begging for more You know it's really suicidal to just give in
With people you can never really be sure...

O-hoh when it gets down to this...
G|---------------------------------------------------------------|
D|----------------------4-5-5-6-6-7------------------------------|
A|-------4-4--------4-5------------------7---7-7-7----5---5-5-5--|
E|---2---------2-------------------------------------------------|
G|---------------------------------------------------------|
D|----------------------4-5-5-6-6-7------------------------|
A|-------4-4--------4-5-----------------7---7-7-7-------7--|
E|---2---------2--------------------------------------0----|
G|------------------------------------|
D|--7/9--9-----9--7/9----9-7----------|
A|----------------------------9-7-----|
E|--------------------------------9---|

VERSE 3

They'll eat you up, When the words get in your head
They'll get you up, It's a saving grace to have enough
When you find yourself in a compromising spot...
G|--------------------------------------------------------------|
D|--------------------------------------------------------------|
A|-------------------7----7-9-----------------------7----7-9----|
E|---5---5-5-5----7h9---9----------5---5-5-5-----7h9---9--------|
G|----------------------------------------------------------------|
D|----------------------------------------------------------------|
A|-------------------7----7-9-----------------------7---—7/9--11--|
E|---5---5-5-5----7h9---9----------5---5-5-5-----7h9---9----------|

PRE-CHORUS 3

You should know, you shouldn't take, All that dog food that they make
You'd just as soon as put yourself on a stake and burn...
G|------------------------------------------------------------------------|
D|-----------------------4-5-5-6-6-7-------------------------4-5-5-6-6-7--|
A|-----4-5-5-6-6-7---5-5-------------------4-5-5-6-6-7---5-5--------------|
E--5-5---------------------------------5-5--------------------------------|

CHORUS 3

You'll see it comin' around, You'll see it coming, comin'around...
G|-------------------------------------------------------------------|
D|-------------------------------------------------------4-5-5-6-6-7-|
A|----------------5---7--------------------4-4-------4-5-------------|
E|--5---5-5-5-------------0-0-4-0-2----2---------2-------------------|

When you see it coming around, you just, yeah...
G|---------------------------------------------------------|
D|---------------------------------------------------------|
A|------------------5---7---7-7-7------5---5-5-5----8~-----|
E|---5---5-5-5---------------------------------------------|

Shake yer head and walk away...
 

CODA

Shake yer head and walk away Yeah! (Walk away) alright! 
Shake, shake, shake, shake yer head
Yes, the one you think with..ho
ohhC'mon, c'mon...
G|--------------------------------------------------------------|
D|--------------------------------------------------------------|
A|-------------------7----7-9-----------------------7----7-9----|
E|---5---5-5-5----7h9---9----------5---5-5-5-----7h9---9--------|

G|--------------------------------------------------------------|
D|--------------------------------------------------------------|
A|-------------------7----7-9-----------------------7----7-9----|
E|---5---5-5-5----7h9---9----------5---5-5-5-----7h9---9--------|
 
|----------------------REPEAT UNTIL FADE------------------------|





| /  slide up
| \  slide down
| h  hammer-on
| p  pull-off
| ~  vibrato
| +  harmonic
| x  Mute note
===============================================================================

            
            
Suggest correction
Creating personal tab
Creating personal tab
You can edit any tab online and save it as your Personal.

You can edit, replace or remove any tab part or add personal notes – all changes will be seen only by you.

Personal tabs can be accessed anytime from any device, even offline.
Learn more »
Give kudos to tab author, rate the tab!
1 2 3 4 5
comments
print report bad tab
guest
You may want to rate the tab now too:
select rating
Wanna post a correction for this tab? Suggest correction