Oops, an error
Loading. Please wait.

Tamagotchi Baby Tab

1,119 views 3 this week
no commentswrite comment
1 2 3 4 5
2 more votes to show rating
add to favorites
×
Save as Personal and add changes to this tab that will be seen only by you. Learn more ›
×
You can save this tab as Personal to edit and correct it or add notes. All changes will be seen only by you. Learn more »
save as personal
new!
launch autoscroll
font size
0
reset
how to read this tab
guitar tuner
Autoscroll
slow
fast
+/-
esc
set tempo
stop
Author
Song: Tamagotchi Baby
Artist/Band: Eraserheads
Album: Aloha Milkyway
Submitted by: bogey

Intro:

E|------------------------------|
B|------------------------------|
G|------------------------------| 4x
D|-------4-5---4-5---4-5--------|
A|------------------------------|
E|------------------------------|

Verse:
          A                G
E|-------------------------------------------------------------|
B|-------------------------------------------------------------|
G|-------------------------------------------------------------|
D|------7-7-7-7---------5-5-5-5--------------------------------| 4x
A|------7-7-7-7---------5-5-5-5--------------------------------|
E|------5—5—5—5---------3—3-3-3--------------------------------|
   Tamagotchi baby, baby you're the one...

E|----------------------------------------------------|
B|----------------------------------------------------|
G|----------------------------------------------------|
D|------7—-7----7—-7-7----5—5-------------------------| 2x
A|----------------------------------------------------|
E|----------------------------------------------------|
   Turn it on...

Pre-chorus:
           A               G
E|-------------------------------------------------------------|
B|-------------------------------------------------------------|
G|-------------------------------------------------------------|
D|------7-7-7-7---------5-5-5-5--------------------------------| 4x
A|------7-7-7-7---------5-5-5-5--------------------------------|
E|------5—5—5—5---------3—3-3-3--------------------------------|
   Automatic lover...

Chorus:

E|-------------------------------------------------------------|
B|-------------------------------------------------------------|
G|-------------------------------------------------------------|
D|----7-7---------5-----5------5—7-----------------------------| 4x
A|---------4-5-7-----7-----7-----------------------------------|
E|-------------------------------------------------------------|
   Wa, wa, wa, wakarimasen...

Verse 2:
(Do verse chords)
Talking to my baby on the LCD
She said i need a triple A battery
User-friendly interface getting wet
Dips and little treasures of a pleasure pet

E|----------------------------------------------|
B|----------------------------------------------|
G|----------------------------------------------|
D|------7—7---0—0-0---4h5---4h5-----------------| 4x
A|----------------------------------------------|
E|----------------------------------------------|
   Scream so guilty...

(Repeat pre-chorus)

Chorus:

E|-------------------------------------------------------------|
B|-------------------------------------------------------------|
G|-------------------------------------------------------------|
D|----0-0---------5-----5------5—7-----------------------------| 3x
A|---------4-5-7-----7-----7-----------------------------------|
E|-------------------------------------------------------------|
   Wa, wa, wa, wakarimasen...

E|-------------------------------------|
B|-------------------------------------|
G|-------------------------------------|
D|----0-0----------5-------------------| 
A|---------4-5-7-----7-5-4-------------|
E|-------------------------------------|

Adlib: (di ko pa alam eh...)

(Drums only)
Scream so guilty...

(Repeat 1st stanza)
(Repeat pre-chorus)

Chorus:

E|-------------------------------------------------------------|
B|-------------------------------------------------------------|
G|-------------------------------------------------------------|
D|----0-0---------5-----5------5—7-----------------------------| 3x
A|---------4-5-7-----7-----7-----------------------------------|
E|-------------------------------------------------------------|
    Wa, wa, wa, wakarimasen...

E|-------------------------------------|
B|-------------------------------------|
G|-------------------------------------|
D|----0-0----------5-------------------| 
A|---------4-5-7-----7-5-4-0-4-0-------|
E|-------------------------------------|

E|-------------------------------------------------------------|
B|-------------------------------------------------------------|
G|-------------------------------------------------------------|
D|----7-7---------5-----5------5—7-----------------------------| 4x
A|---------4-5-7-----7-----7-----------------------------------|
E|-------------------------------------------------------------|
    Wa, wa, wa, wakarimasen...

E|-------------------------------------------------------------|
B|-------------------------------------------------------------|
G|-------------------------------------------------------------|
D|----0-0---------5-----5------5—7-----------------------------| 8x
A|---------4-5-7-----7-----7-----------------------------------|
E|-------------------------------------------------------------|
    Wa, wa, wa, wakarimasen...

Outro:

E|-------------------------------------------------------------|
B|-------------------------------------------------------------|
G|-------------------------------------------------------------|
D|----0-0---------5-----5------5—7-----------------------------| 3x
A|---------4-5-7-----7-----7-----------------------------------|
E|-------------------------------------------------------------|
    Tamagotchi baby, baby you're the one


That's it! Paki-rate na lang...
Suggest correction
Give kudos to tab author, rate the tab!
1 2 3 4 5
comments
print report bad tab
guest
You may want to rate the tab now too:
select rating
Wanna post a correction for this tab? Suggest correction