Oops, an error
Loading. Please wait.

Torpedo Tab

version 1
version 1

Whole song

Interactive

65,584 views 117 this week
5 commentsread comments
1 2 3 4 5
excellent!
x 11
add to favorites
launch autoscroll
font size
0
reset
how to read this tab
guitar tuner
Autoscroll
slow
fast
+/-
esc
set tempo
stop
Help us to improve Ultimate-Guitar.com Take our survey!
×
Song: TORPEDO
Artist: Eraser Heads
Album: Cutter-Pillow
Transcribed by: Albert D. Espera
Tuning: Standard


[Intro]

   Csus
e|------3---------------|
B|----1-----------------| (repeat 8x)
G|---0-0----------------|
D|----------------------|
A|----------------------|
E|----------------------|

[Verse 1]

   Csus
  Pasensya na
e|------3---------------|
B|----1-----------------| (repeat 4x)
G|---0-0----------------|
D|----------------------|
A|----------------------|
E|----------------------|
   D
  Kung ako ay
e|------2---------------|
B|----3-----------------| (repeat 4x)
G|---2-2----------------|
D|----------------------|
A|----------------------|
E|----------------------|
   Dm                   G
  Di' nag
e|------1------------3-------|
B|----3----(2x)----3----(2x)-|
G|---2-2----------0-0--------|
D|---------------------------|
A|---------------------------|
E|---------------------------|
   Csus
  Sasalita
e|------3---------------|
B|----1-----------------| (repeat 4x)
G|---0-0----------------|
D|----------------------|
A|----------------------|
E|----------------------|
   Csus
  Hindi ko kayang                                (2nd Guitarist comes in!)
e|------3---------------|                       B|------8---------------|               
B|----1-----------------| (repeat 4x)           G|----5-----------------| (repeat 4x)
G|---0-0----------------|                       D|---5-5----------------|
D|----------------------|                       A|----------------------|
A|----------------------|                       E|----------------------|
E|----------------------|                                                                               
   D
  Sabihin                                        (2nd Guit.)
e|------2---------------|                       B|------7---------------|
B|----3-----------------| (repeat 4x)           G|----7-----------------| (repeat 4x)
G|---2-2----------------|                       D|---7-7----------------|
D|----------------------|                       A|----------------------|
A|----------------------|                       E|----------------------|
E|----------------------|

   Dm                   G       
  Ang aking                                      (2nd Guit.)
e|------1------------3-------|          B|------6------------8-------|
B|----3----(2x)----3----(2x)-|          G|----7----(2x)----7----(2x)-| 
G|---2-2----------0-0--------|          D|---7-7----------5-5--------|
D|---------------------------|
A|---------------------------|
E|---------------------------|
   Csus
  Nadarama                                       (2nd Guit.)
e|------3---------3-----|                       B|------8---------8-----|
B|----1----(2x)---1-----|                       G|----5----(2x)---5-----| 
G|---0-0----------0-----|                       D|---5-5----------5-----|       
D|----------------------|
A|----------------------|
E|----------------------|
        
RIFF:

e|------------------------|
B|------------------------|
G|------------------------|
D|------------------------|
A|---------------5--------| (Both guitarist play this 
E|---7-7-7-5-3-5----------|   riff with Distortion!)


[Chorus]

(Play the entire chorus with distortion and in power chords!)
        
  A
H'wag mo na akong pilitin
  F                     A
Ako ay walang lakas ng loob
                G
Para tumange  
  A
Walang dapat ipagtaka
  A#                    E
Ako ay pinanganak na torpe
          A   G
Sa ayaw at hinde/ D'yan sa tabe tabe


[Verse 2]

(Get along with the struming!)

Guitar#1 (Play this entire verse in higher chords!)
Guitar#2 (Play this entire verse in lower chords!)

 C
Pasensya na
 D
Kung ikaw ay naiinis
 Dm             
Ayoko na sanang pagusapan
 C
Pa
 C
Kung gusto mo ay
 D
Manood ka na lang ng sine
 Dm
Di'bat huwebes ngayon
 C
Baka may bago nang palabas


[Instrumental]

(Both guitarist play this!)
Guitar#1 (play without distortion)
Guitar#2 (play with distortion)

e|---------15--------15------15-------------|
B|-----13--------13------13--------13--13---|
G|---12--12--------12------12--------12-----|
D|------------------------------------------|
A|------------------------------------------|
E|------------------------------------------|

e|---------14--------14------14-------------|
B|-----13--------13------13--------13--13---|
G|---11--11--------11------11--------11-----|
D|------------------------------------------|
A|------------------------------------------|
E|------------------------------------------|

e|---------12--------12------12-------------|
B|-----13--------13------13--------13--13---|
G|---10--10--------10------10--------10-----|
D|------------------------------------------|
A|------------------------------------------|
E|------------------------------------------|

e|--------------------------------------------|
B|-----------13--------13------13--------13---|
G|-----------------12------12--------12-------|
D|---14/15/14--------14------14--------14-----|
A|--------------------------------------------|
E|--------------------------------------------|


REPEAT RIFF:
REPEAT CHORUS:


[Verse 3]

Guitar#1 (Play the entire verse in higher chords!)
Guitar#2 (Play the half of the verse in lower chords!)

   C
  Pasensya na
   D
  Kung ako ay naiiyak
   Dm                   
  Mababaw lang talaga ang 
   C
  Luha ko 
   C
  Di'ko mapigil
 (2nd Guit.)
e|---------15--------15------15-------------|
B|-----13--------13------13--------13--13---|
G|---12--12--------12------12--------12-----|

   D
  Ang aking damdamin
 (2nd Guit.)
e|---------14--------14------14-------------|
B|-----13--------13------13--------13--13---|
G|---12--12--------12------12--------12-----|

   Dm
  Puwede bang umalis ka na't
 (2nd Guit.)
e|---------12--------12------12-------------|
B|-----13--------13------13--------13--13---|
G|---12--12--------12------12--------12-----|

  C
  Tumutunog na ang beeper mo
 (2nd Guit.)
B|---------13--------13------13-------------|
G|-----12--------12------12--------12--12---|
D|---14--14--------14------14--------14-----|


[Bridge 1]

GUITAR#2: (Repeat 2nd guitar riffs in verse3!)

   Csus
  Pasensya na
 (1st Guit. w/dist.)
e|-------3-3--3-3--3-3-----|
B|----1--1-1--1-1--1-1—1---|
G|---0-0-----0----0----0---|

    D
  Ha..ha..ha.ha....
 (1st Guit. w/dist.)
e|-------2-2---------------|
B|----3--3-3--3---(2x)-----|
G|---2-2-----2-------------|

   Dm           
  Huhhh..huhh.huh.huh.huh
 (1st Guit. w/dist.)
e|-------1-1--1-1--1-1-----|
B|----3--3-3--3-3--3-3--3--|
G|---2-2-----2----2----2---|

   Csus
  huhhh...
 (1st Guit. w/dist.)
e|-------3-3--3-3--3-3-----|
B|----1--1-1--1-1--1-1-----|
G|---0-0-----0----0----0---|

        
        
[Bridge 2]

GUITAR#1 (Get along with the strumming, Play this in higher chords and with
            dist.!)       
GUITAR#2 (Repeat 2nd guitar riffs in verse3!)
         
   C
  Tut tut tut tuu...
   D
  Tut tut tut tuu...
   Dm
  Tut tut tut tuu...
   C
  Tut tuu...Tut tuu.

        
[Outro]

GUITAR#1 (Play this w/o dist.)
GUITAR#2 (Play this w/ dist.)

e|---------12----12------13----13-----------------------------------|
B|-----13----13----13------13----13—13---------13-------------------|
G|---10--10----10------10----10----10------12----12—12--------------|
D|---------------------------------------14--14----14---14b/10~~~---|
        
        
(That's all, I know this is not accurate, I'm just a beginner, but I'll assure   
 you'll get along. TY!)
(/no1!!!)



************************************

| /  Slide up
| ~  Vibrato

************************************
Suggest correction
What's this?
You can suggest a correction to this tab. Community and Mods will review your correction and vote to approve or reject it.
comments
print report bad tab
5 comments total. Showing first comments.
0 reply
hillraiser 58 wrote on January 13 2009, 07:44 am

thanks a lot,
even its lack..,

0 reply
hillraiser 58 wrote on January 13 2009, 07:54 am

pde mag tanong?
ilang daysmo pa to sinubmit bago
tinanggap ng ultimate-guitar??
kasi nag submit na ako ng 3 kanta
at wala pa sa tatlo ang na accept..

0 reply
hillraiser 58 wrote on January 13 2009, 08:01 am

bat baliktad ung:

RIFF:
A|-------------5--------| (Both guitarist play this
E|---777-5-3-5----------| riff with Distortion!)

kuha sya sa A|----777-5-3-5..,
try mo.

guest
You may want to rate the tab now too:
select rating
Please do not post tabs as comments. Select "correction" instead!