Oops, an error
Loading. Please wait.

Toyang Tab

version 1
version 1

Intro

Whole song

Interactive

10,185 views 18 this week
1 commentread comment
1 2 3 4 5
please rate
add to favorites
launch autoscroll
font size
0
reset
how to read this tab
guitar tuner
Tab Pro tools
  • play this tab
  • loop segment
  • change instrument
  • show fretboard
  • metronome
×
Best way to learn
"Toyang"
Autoscroll
slow
fast
+/-
esc
set tempo
stop
Contributor
-----------------------------------------------------------------------------
TOYANG - Eraserheads
-----------------------------------------------------------------------------
Tabbed by: Carl Gabriel C. Culvera
Email: wizard_effect@yahoo.com

Tuning: Standard

Intro: “Too young to really be in love…”

E|---6~--------|
B|-7-----5-5-5-|
G|-7-----4-4-4-|
D|-------2-2-2-|
A|-------------|
E|-------------|

Chorus: “Bahay namin maliit lamang pero pero pero malinis to pati sa kusina…”

E|--------------------------------------------------------------------------|
B|-11-11--14-14--12-12---------11-11--14-14--12-12---------11-11--14-14--12-|
G|-10-10--13-13--11-11--9-9-9--10-10--13-13--11-11--9-9-9--10-10--13-13--11-|
D|-12-12--15-15--13-13--9-9-9--12-12--15-15--13-13--9-9-9--12-12--15-15--13-|
A|----------------------7-7-7-----------------------7-7-7-------------------|
E|--------------------------------------------------------------------------|

E|--------------------------------------------------------------------------|
B|-12---------11-11--14-14--12-12---------11-11--14-14--12-12---------11-11-|
G|-11--9-9-9--10-10--13-13--11-11--9-9-9--10-10--13-13--11-11--9-9-9--10-10-|
D|-13--9-9-9--12-12--15-15--13-13--9-9-9--12-12--15-15--13-13--9-9-9--12-12-|
A|-----7-7-7-----------------------7-7-7-----------------------7-7-7--------|
E|--------------------------------------------------------------------------|

E|-------------------------------------------------|
B|-14-14--12-12---------11-11--14-14--12-12--------|
G|-13-13--11-11--9-9-9--10-10--13-13--11-11--9-9-9-|
D|-15-15--13-13--9-9-9--12-12--15-15--13-13--9-9-9-|
A|---------------7-7-7-----------------------7-7-7-|
E|-------------------------------------------------|

Post – Chorus: “Mahal ko si Toyang pagkat siya’y simple lamang kahit namumrublema 
kami ay magkasama…”

E|------------------------------------| Repeat this tab twice then…
B|------------------------------------|
G|-7-7-7-7--9-9-9-9--7-7-7-7--9-9-9-9-|
D|-7-7-7-7--9-9-9-9--7-7-7-7--9-9-9-9-|
A|-5-5-5-5--7-7-7-7--5-5-5-5--7-7-7-7-|
E|------------------------------------|

Verse: “Madalas man kaming walang pera…”

E|--------------------------------------------------------------------------|
B|-11-11--14-14--12-12---------11-11--14-14--12-12---------11-11--14-14--12-|
G|-10-10--13-13--11-11--9-9-9--10-10--13-13--11-11--9-9-9--10-10--13-13--11-|
D|-12-12--15-15--13-13--9-9-9--12-12--15-15--13-13--9-9-9--12-12--15-15--13-|
A|----------------------7-7-7-----------------------7-7-7-------------------|
E|--------------------------------------------------------------------------|

E|-----------|
B|-12--------|
G|-11--9-9-9-|
D|-13--9-9-9-|
A|-----7-7-7-|
E|-----------|

Solo:

E|--------------------------------------------------------------------------|
B|--------------------------------------------------------------------------|
G|--------------------------------------------------------------------------|
D|-------7-9/11~-9-11-9-11-9-10b-----------------------------------------12-|
A|-5/7-9-------------------------12-10-12-10-8---------8---------8-10-8-----|
E|---------------------------------------------10-8-10---10-8-10------------|

E|-------------------------------------------------------------------------|
B|-------------------------------------------------------------------------|
G|-------------------------------------------------------------------------|
D|----------12----------12-------------------------------------7-10-8--10b-|
A|-13h14p13----13h14p13----14-10/12-------10/12-------10/12--9-------------|
E|----------------------------------14-12-------14-12----------------------|

E|--------------|
B|--------------|
G|--------------|
D|-11b-10b-8\1~-|
A|--------------|
E|--------------|

“Hey man… unsa man…”

E|---------------------------------------------------------------------|
B|-5/10-10--10/12--------------------------5/10-10--10/12--------------|
G|----------------13--13/14-------------------------------13--13/14----|
D|--------------------------16--16/18-18~---------------------------16-|
A|---------------------------------------------------------------------|
E|---------------------------------------------------------------------|

“Ti ayat ti maysa nga baro… (How can I tell you about my loved one?)”

E|-------------------------------------| Repeat this tab four times then…
B|-11-11-11--14-14-14--12-12-12--------|
G|-10-10-10--13-13-13--11-11-11--9-9-9-|
D|-12-12-12--15-15-15--13-13-13--9-9-9-|
A|-------------------------------7-7-7-|
E|-------------------------------------|

Chorus: “Bahay naming maliit lamang pero pero pero malinis to pati sa kusina…”

E|--------------------------------------------------------------------------|
B|-11-11--14-14--12-12---------11-11--14-14--12-12---------11-11--14-14--12-|
G|-10-10--13-13--11-11--9-9-9--10-10--13-13--11-11--9-9-9--10-10--13-13--11-|
D|-12-12--15-15--13-13--9-9-9--12-12--15-15--13-13--9-9-9--12-12--15-15--13-|
A|----------------------7-7-7-----------------------7-7-7-------------------|
E|--------------------------------------------------------------------------|

E|------------------------------------------------------------|
B|-12---------11-11--14-14---------11-11--14-14--12-12--------|
G|-11--9-9-9--10-10--13-13--9-9-9--10-10--13-13--11-11--9-9-9-|
D|-13--9-9-9--12-12--15-15--9-9-9--12-12--15-15--13-13--9-9-9-|
A|-----7-7-7----------------7-7-7-----------------------7-7-7-|
E|------------------------------------------------------------|

Chorus: “Mahal ko si Toyang pagkat siya’y simple lamang kahit namumroblema 
basta’t kami ay magkasama…”

E|-------------------------------------| Repeat
B|-------------------------------------| this
G|-------------------------------------| tab
D|----------------------7-9-7-10-9-7---| four
A|----8-10-8----8-10--9----------------| times
E|-10--------10------------------------| then…


Solo:

E|-------------------------------------------------------------------------|
B|-------------------------------------------------------------------------|
G|--------------------------------------10/12-10/12-10/12-10-13b--13-13-13-|
D|-11b----11b----11b----11b----11b-11b-------------------------------------|
A|-----13-----13-----13-----13---------------------------------------------|
E|-------------------------------------------------------------------------|

E|-------------------------------------------------------------------------|
B|-------------------------------------------------------------------------|
G|-13-12-10----------------------------------------------------------------|
D|----------14b-----14b----------12----------------------------------------|
A|--------------14------14-13-15----12/13-15-11/12-13--13-11----11-9-7-----|
E|-----------------------------------------------------------13---------11-|

E|----------------------------------------------------------------------|
B|----------------------------------------------------------------------|
G|----------------------------------------------------------------------|
D|----------------------------------------------------------9-9-9-9-9-9-|
A|----9-----9----9--------9-----9----9-10/12-10/12-10/12-10-------------|
E|-11----11---11----11-11----11---11------------------------------------|

“We were not too young at all…”

E|-------------------------------------------------------------------------|
B|-------------------------------------------------------------------------|
G|-7-7-7-7--9-9-9-9--------------------------------------------------------|
D|-7-7-7-7--9-9-9-9-----12----------12----------12----------12----------12-|
A|-5-5-5-5--7-7-7-7--12----11-12-11----11-12-11----11-12-11----11-12-11----|
E|-------------------------------------------------------------------------|

E|------------------------|
B|------------------------|
G|------------------------|
D|----------12\1--1/12\12-|
A|-11-12-11---------------|
E|------------------------|
comments
We did not receive enough feedback on this tab! Please rate:
print report bad tab
1 2 3 4 5
1 comment total.
0 reply
pauz_flickz wrote on December 4 2009, 07:36 pm

..mali-mali nman yan!!!

I want to post or [tab]
guest
You may want to rate the tab now too:
select rating
Please do not post tabs as comments. Select "correction" instead!