Oops, an error
Loading. Please wait.

Toyang tab

version 2
version 2

Whole song

Interactive

3,426 views 3 this week
no commentswrite comment
1 2 3 4 5
3 more votes to show rating
add to favorites
×
Save as Personal and add changes to this tab that will be seen only by you. Learn more ›
×
You can save this tab as Personal to edit and correct it or add notes. All changes will be seen only by you. Learn more »
launch autoscroll
font size
0
reset
how to read this tab
guitar tuner
edit
Autoscroll
slow
fast
+/-
esc
set tempo
stop
Difficulty
intermediate
                             Toyang by Eheads

Intro:A,C#m,Bm,E
Verse:A,C#m,Bm,E
Verse guitar 2:
sa Pen pen desarapen tong part na 2 pachords n lang ung
 bahay namin .....laging sama-sama
e—-------------------------------------------------------------------|
B--------------------------------------------------------------------|
G--------------------------------------------------------------------|
D--------------------------------66------------------44--------------|
A------44---77---44----44---77--------77----22---55-----55-----------|
E---55---------------------------------------------------------------|

e—-----------------------------------------------------------------|
B------------------------------------------------------------------|
G------------------------------------------------------------------|
D------------------------------------------------------------------|
A----77---55---44---22---------------------------------------------|
E------------------------------------------------------------------|

repeat 4x

e—--------------------------------------------------------|
B---------------------------------------------------------|
G---------------------------------------------------------|
D---------------------------------------------------------|
A-555555555-777777777-------------------------------------|
E---------------------------------------------------------|
repeat nyo 4 times tapos tagaln nyo 7th fret hangang sa snd verse


2nd Verse:

e—-5-5h7-4-4h5-2-2h4-4------|
B--5------------------------|
G---------------------------|
D---------------------------|
A---------------------------|
E---------------------------|

e—-5-5h7-4-4h5-2-2h4-4------|
B--5------------------------|
G---------------------------|
D---------------------------|
A---------------------------|
E---------------------------|

Di ko alam ung solo mabilis masyado

ENJOY THE TABS


bINABATI KO UNG TAGA CALATAGAN BATANGAS AT SA TAGA OUR LADY OF CARMEL SCHOOL
ty POH

ADD ME TO MY ym AND frIENDSTER butiong_23@yahoo.com
Suggest correction
Creating personal tab
Creating personal tab
You can edit any tab online and save it as your Personal.

You can edit, replace or remove any tab part or add personal notes – all changes will be seen only by you.

Personal tabs can be accessed anytime from any device, even offline.
Learn more »
Give kudos to tab author, rate the tab!
1 2 3 4 5
comments
print report bad tab
guest
Wanna post a correction for this tab? Suggest correction