Oops, an error
Loading. Please wait.

Tuwing Umuulan At Kapiling Ka intro tab

version 1
version 1

Intro

6,805 views 9 this week
1 commentread comment
1 2 3 4 5
3 more votes to show rating
add to favorites
×
Save as Personal and add changes to this tab that will be seen only by you. Learn more ›
×
You can save this tab as Personal to edit and correct it or add notes. All changes will be seen only by you. Learn more »
launch autoscroll
font size
0
reset
how to read this tab
guitar tuner
edit
Autoscroll
slow
fast
+/-
esc
set tempo
stop
Author
Difficulty
Song: Tuwing umuulan at kapiling ka
Artist: E-heads
Tabbed by : Michael De Guzman


Hi mejo ndi ako cgurado sa tab n toh its like 50% right...basta kpag may problema email 
n lng ako or add nyo n lng ako sa friendster... M_mj_J@hotmail.com ang e-add ko

e|---------------------------------------------------------------------------|
B|---------------------------------------------------------------------------|
G|-15^-15-16-17-18-18-18--15-16/18-15----------------------------------------|
D|---------------------------------------------------------------------------|
A|---------------------------------------------------------------------------|
E|---------------------------------------------------------------------------|

Continuation

e|---------------------------------------------------------------------------|
B|---------------------------------------------------------------------------|
G|---------------------------------------------------------------------------|
D|-15-17-20-17-20-15-17-15-15-17-15-13-12-11-8-------------------------------|
A|---------------------------------------------------------------------------|
E|---------------------------------------------------------------------------|

Bonus nga pla etoh ung solo

e|---------------------------------------------------------------------------------|
B|---------------------------13-16-15-13-11----------------------------------------|
G|-7-8-10--8-10-12--12-10-10----------------12-14-15-15-15/19-19-19-19-17-15-17^---|
D|---------------------------------------------------------------------------------|
A|---------------------------------------------------------------------------------|
E|---------------------------------------------------------------------------------|

Yan po sana magus2han nyo...
Suggest correction
Creating personal tab
Creating personal tab
You can edit any tab online and save it as your Personal.

You can edit, replace or remove any tab part or add personal notes – all changes will be seen only by you.

Personal tabs can be accessed anytime from any device, even offline.
Learn more »
Give kudos to tab author, rate the tab!
1 2 3 4 5
comments
print report bad tab
1 comment total.
0 reply
AMBEREYES35 10 Aug 29, 2016 09:24 AM

I just don't like it - no special reason

guest
You may want to rate the tab now too:
select rating
Wanna post a correction for this tab? Suggest correction