Oops, an error
Loading. Please wait.

Wishing Wells Tab

version 1
version 1

Whole song

1,818 views 3 this week
no commentswrite comment
1 2 3 4 5
please rate
add to favorites
launch autoscroll
font size
0
reset
how to read this tab
guitar tuner
Tab Pro tools
  • play this tab
  • loop segment
  • change instrument
  • show fretboard
  • metronome
×
Best way to learn
"Wishing Wells"
Autoscroll
slow
fast
+/-
esc
set tempo
stop
                    Whishing Wells by the Eraserheads

(all guitars tuned half step down to Eb)

Intro chords:  G----C---F---    x4
Intro riff:

e|----------15-15-15-14-12------------|--12----------|-13-13-13|
B|-10s12---11--------------15-13-12-13|-13-13--------|---------|
G|------------------------------------|---------12S14|---------|
D|------------------------------------|--------------|---------|    x4
A|------------------------------------|--------------|---------|
E|------------------------------------|--------------|---------|

Chorus:
   G                                        C        F
I wish I could go back to those fairy book tales
            G                               C                     F
forget the real world a while and seek the seas of the talking whales
    G                                 C       F
a place of wishing wells and magic spells
    G                                 C       F
a place of wishing wells and magic spells
       G                                   C             F(pause)
Where everything starts out once upon a time long long ago and ends
                 G          C          F
happilly ever after uh huh huh, yeah yeah

verse 1:
      G
I could go up the hill and run with Jill
      C                               F
The giant could smell I'm no english man
      G
Cinderella danced with me at the ball
      C                               F
I told the queen of hearts about my plans
      G
I traveles Wonderland with Alice
      C                         F
I met with Snow White in the woods
      G
I flew with Peter Pan in neverneverland
   C                                   F
Picked some berries with Ms. Red Riding Hood

(repeat chorus)

verse2:
   G
I could be an outlaw in the west

save damsels in distress
  C                     F
We could sleep a hundred years
   G
I could wake you up with a kiss

We'll swim the seven seas
  C
we could make love more then twice
  F(pause)
fly like dragons in the skies
  G
We could hang around on trees

or buzz around like bees
  C
we could make some honey
  F
we don't need no money baby
   G
Just turn your back

you'll see jumpin' jellybeans sack
  C
just wait for me Jack
  F
I'll be back, I'll be back

(repeat chorus)
(reapeat intro)

    G                                 C       F
a place of wishing wells and magic spells          x4

YEAH!
e|15-15-15-15---15-15-15-14-12------------|--12---------|
B|-----------------------------15-13-12-13|-13-13-------|
G|----------------------------------------|--------12S14|
D|----------------------------------------|-------------|
A|----------------------------------------|-------------|
E|----------------------------------------|-------------|

e|-13-13-13-13-13-13-13-|--11--11-|
B|----------------------|------12-|
G|----------------------|---------|
D|----------------------|---------|
A|----------------------|---------|
E|----------------------|---------|

*that's all, hope you guys enjoy this... I never realy submit my tabs so this is actualy 
first time I'm posting a tab that I've done, so kung my corrections, just email me :)

YEAH!! EHEADS 4EVER!! \m/

-  tab by Kevin Faraon
-  faraon7k@yahoo.com
-  add nyo rin ako s facebook kung gusto nyo :)
comments
We did not receive enough feedback on this tab! Please rate:
print report bad tab
1 2 3 4 5
I want to post or [tab]
guest
You may want to rate the tab now too:
select rating
Please do not post tabs as comments. Select "correction" instead!