Oops, an error
Loading. Please wait.

With A Smile bass

version 3
version 3

Whole song

Interactive

385 views 9 this week
no commentswrite comment
1 2 3 4 5
3 more votes to show rating
add to favorites
×
Save as Personal and add changes to this tab that will be seen only by you. Learn more ›
×
You can save this tab as Personal to edit and correct it or add notes. All changes will be seen only by you. Learn more »
launch autoscroll
font size
0
reset
guitar tuner
edit
Autoscroll
slow
fast
+/-
esc
set tempo
stop
 Artist: Eraserheads
 Song: With A Smile


 This tablature start on refrain where the bass guitar takes part of the song.
 The intro and the first verse are omitted. I have put some lyrics in each part 
 of the tab to keep track of the song.


[Refrain 1]

  Baby you dont have to worry..

  BbM7       EbM7     BbM7      EbM7        BbM7      EbM7     BbM7
G|----------|--------|3--------|-----------|---------|--------|--------------|
D|----------|1----3-1|-----3---|1-------1-0|-------0-|1-----3-|--------------|
A|1------3-1|--------|---------|-----------|1--------|--------|1-------------|
E|----------|--------|---------|-----------|---------|--------|--------------|


  D
G|------------------|
D|------------------|
A|5------------9\---|
E|------------------|


[Verse 2]

  Girl I stay..

  G              Am                Bm               Am             D
G|--------------|-----------------|----------------|--------------|----------|
D|------5-5-----|-----------------|--------9-------|--------7-----|----------|
A|----5------5--|--------5-7---5--|------9---9-----|------7---7-5-|5---------|
E|3-----------3-|5---5/8--------5-|7-----------7-6-|5-------------|---------5|
 

  G              Am                Bm               Am             D
G|--------------|-----------------|----------------|--------------|----------|
D|---------5----|------------7-5--|-------9--------|--------7-----|----------|
A|-------5------|--------5-7-----5|-----9---9------|------7---7-5-|5---------|
E|3----------3--|5---5/8----------|7---------7-7-6-|5-------------|----------|


[Refrain 2]

  In a world where everybody hates..

  BbM7                 EbM7                 BbM7                 EbM7      F
G|--------------------|--------------------|--------------------|---------|-----------|
D|--------------------|1--1-----0-1--3-1---|--------------------|1--1--3--|-----------|
A|1--1------0-1--1-3-1|-----1-3----------3-|1--1------0-1--1-3-1|--------3|-----------|
E|------1-3-----------|--------------------|------1-3-----------|---------|1--1-3-1-0-|

  BbM7                 EbM7              BbM7                 D
G|--------------------|-----------------|--------------------|---------------|
D|--------------------|1----3/5--3------|--------------------|0--2--4~-------|
A|1--1------0-1--1-3-1|-------------5-3-|1--1------0-1--1-3-1|---------------|
E|------1-3-----------|-----------------|------1-3-----------|---------------|


[Chorus]

  Too doo doo doo..

  G               Am            Bm                   Am                D
G|---------------|-------------|--------------------|-----------------|--------|
D|5~---------5---|7~-----------|9~--------------8---|7~---------------|--------|
A|------------5/7|----------7/9|-------------9\8-8\7|-----------7\5-5-|--------| 
E|---------------|-------------|--------------------|-----------------|--------|


  G               Am            Bm                  Am              D
G|---------------|-------------|-------------------|---------------|---------|
D|---------------|-------------|-------------------|---------------|---------|
A|---------------|-------------|-------------------|--------2-3-5--|---------|
E|3~----------3-4|5---------5/7|7~--------------6--|5--------------|---------|


[Refrain 3]

  In a world where everybody hates..

  BbM7                 EbM7                BbM7                   EbM7           F
G|--------------------|-----------5p3-----|----------------------|--------------|---------|
D|------------------0-|1--1----------5-3--|----------------------|1--1--1--1--3-|---------|
A|1--1-----0-1--1-3---|------1--3--------5|1--1-------0-1--1-3-1-|-------------3|---------|
E|-----1-3------------|-------------------|-------1-3------------|--------------|1--1-3-1-|


  BbM7                 EbM7                BbM7                   D
G|-------------------------------3-------------------------------------------|
D|---------------------1--1-3/5-----5-3---------------------------0--2--4~---|
A|1--1-----0-1--1-3-1-------------------5--1--1-------0-1--1-3-1-------------|
E|-----1-3----------------------------------------1-3------------------------|
 

[Bridge]

  Lift your head..

  G                |Am               |Bm               |Am          |D
G|---------------------------------------------------------------------------|
D|5~-------------------------------------------------------------------------|
A|---------------------------------------------------------------------------|
E|---------------------------------------------------------------------------|


  You"ll get by.. 
           
  G                 Am                Bm               Am            D
G|-----------------|-----------------|----------------|-------4-5-7-|--------|
D|5~---------------|7~------------7-8|9-----------8---|7------------|--------|
A|-----------------|-----------------|----------------|-------------|2-3-5---|
E|-----------------|-----------------|----------------|-------------|--------|


[Outro]
 
  Too doo doo doo..

  G                        Am                         Bm                        Am                D
G|------------------------|--------------------------|-------------------------|-----------------|-----|
D|----------5--5----------|-------------7/9-7--5-----|-------------------------|-----------7-----|----4|
A|--------5----------5----|------------7---------7-5-|2~---------2-2---2-1----1|0~-------7---7-5-|-----|
E|3~-------------------3-4|5~------------------------|---------2-----2------1--|-----------------|-----|
  



  End of tablature.



************************************

| x   Dead note
| g   Grace note
| (n) Ghost note
| h   Hammer-on
| p   Pull-off
| r   Release
| >   Accented note
| t   Tapping
| b   Bend
| br  Bend release
| pb  Pre-bend
| pbr Pre-bend release
| /   Slide up
| \   Slide down
| ~   Vibrato
| s   Slap
| P   Pop
| PM  Palm mute
| TR  Trill
| N   Tremolo

************************************

            
            
Suggest correction
Creating personal tab
Creating personal tab
You can edit any tab online and save it as your Personal.

You can edit, replace or remove any tab part or add personal notes – all changes will be seen only by you.

Personal tabs can be accessed anytime from any device, even offline.
Learn more »
Give kudos to tab author, rate the tab!
1 2 3 4 5
comments
print report bad tab
guest
You may want to rate the tab now too:
select rating
Wanna post a correction for this tab? Suggest correction