Oops, an error
Loading. Please wait.

Shine On Tab

version 2
version 2

Whole song

22 views 3 this week
no commentswrite comment
1 2 3 4 5
3 more votes to show rating
add to favorites
launch autoscroll
font size
0
reset
how to read this tab
guitar tuner
Autoscroll
slow
fast
+/-
esc
set tempo
stop
Help us to improve Ultimate-Guitar.com Take our survey!
×
Author
Difficulty
intermediate
[Intro]

X means: mute all strings by hitting them with your right hand. It will make the rythm.

                       mm-hmmm                                      mm-hmmm
e|-------X-----------X-----------X-------------------X-----------X-----------X-----------------------|
B|-------X-----------X-----------X-------------------X-----------X-----------X-----------------------|
G|-------X-----------X-----------X-------------------X-----------X-----------X------------0h2p0------|
D|-------X-----------X-----------X-------------------X-----------X-----------X--------0h2-------2p0--|
A|-------X--0h2-3-3--X--3p2------X--0h2-3-3-2-2------X--0h2-3-3--X--3p2------X--0h2-3----------------|
E|--3-3--X-----------X------0-0--X--------------3-3--X-----------X------0-0--X-----------------------|

                       mm-hmmm               oh, yeah                                               
e|-------X-----------X-----------X----------X---------X-----------X-----------X-----------------------|
B|-------X-----------X-----------X----------X---------X-----------X-----------X-----------------------|
G|-------X-----------X-----------X----------X---------X-----------X-----------X------------0h2p0------|
D|-------X-----------X-----------X----------X---------X-----------X-----------X--------0h2-------2p0--|
A|-------X--0h2-3-3--X--3p2------X--0h2-3-3-X-2-------X--0h2-3-3--X--3p2------X--0h2-3----------------|
E|--3-3--X-----------X------0-0--X----------X----3-3--X-----------X------0-0--X-----------------------|


[Verse]

      Life gives you the runaround, you sa-a-ay          you wanna kno-o-ow how much dues must you pay
e|-----------X-----------------------X-----------X-------------X-------------X-------------X------------X--|
B|-----------X-----------------------X-----------X-------------X-------------X-------------X------------X--|
G|-----------X-----------------------X-----------X-------------X-------------X-------------X------------X--|
D|-----------X-----------------------X-----------X-------------X-------------X-------------X------------X--|
A|-----------X----0-h-2---3----3-----X--3p2------X--0h2-3-3----X----2--------X--0h2---3-3--X---3p2------X--|
E|--3--3-----X-----------------------X------0-0--X-------------X------3--3---X-------------X-------0-0--X--|

           well
e|-----------------------|
B|-----------------------|
G|------------0h2p0------|
D|--------0h2-------2p0--|
A|--0h2-3----------------|
E|-----------------------|

      you   can      have what you want to         where there's a will, there's     always   a  way
e|-----------X-------------X---------------X---------------X---------------X-------------X------------X--|
B|-----------X-------------X---------------X---------------X---------------X-------------X------------X--|
G|-----------X-------------X---------------X---------------X---------------X-------------X------------X--|
D|-----------X-------------X---------------X---------------X---------------X-------------X------------X--|
A|-----------X--0h2--3--3--X---3p2---------X--0h2-3-3------X-----2---------X--0h2---3-3--X---3p2------X--|
E|--3--3-----X-------------X--------0---0--X---------------X-------3--3----X-------------X-------0-0--X--|

             keeping
e|-----------------------|
B|-----------------------|
G|------------0h2p0------|
D|--------0h2-------2p0--|
A|--0h2-3----------------|
E|-----------------------|

               
[Pre-chorus] 

   Am7                  C      D
...your eyes on that mountain top
Am7                        C         D      
One step at a time, don’t ever-ever stop


[Chorus] 

      Keep on when your mind says quit      dream on 'til you find you're living it      I'll        
e|----------X-----------------------X--------------X------------------------X-------------X--|
B|----------X-----------------------X--------------X------------------------X-------------X--|
G|----------X-----------------------X--------------X------------------------X-------------X--|
D|----------X-----------------------X--------------X------------------------X-------------X--|
A|----------X--0--h-2----3----3-----X--3p2---------X---0-h-2---3----3-------X----2--------X--|
E|--3--3----X-----------------------X------0--0----X------------------------X-------3--3--X--|

    be   right by your side        yeah, baby,  keep on
e|-----------------X------------X--------------------------|
B|-----------------X------------X--------------------------|
G|-----------------X------------X---------------0h2p0------|
D|-----------------X------------X-----------0h2-------2p0--|
A|--0h2----3---3---X---3p2------X--0h2----3----------------|
E|-----------------X-------0-0--X--------------------------|

      Don't stop 'til you win your prize      lean on  all the love that's in my eyes   you're
e|-----------X-----------------------X--------------X-----------------------X--------------X--|
B|-----------X-----------------------X--------------X-----------------------X--------------X--|
G|-----------X-----------------------X--------------X-----------------------X--------------X--|
D|-----------X-----------------------X--------------X-----------------------X--------------X--|
A|-----------X-----0-h-2---3---3-----X--3p2---------X---0-h-2----3----3-----X-----2--------X--|
E|--3--3-----X-----------------------X------0--0----X-----------------------X--------3--3--X--|

     a  diamond to me      yes you are    shine on
e|---------------X----------X------------------------|
B|---------------X----------X------------------------|
G|---------------X----------X-------------0h2p0------|
D|---------------X----------X---------0h2-------2p0--|
A|--0h2--3---3---X-3p2------X--0h2--3----------------|
E|---------------X-----0-0--X------------------------|

                       mm-hmmm               shine on                                      well, I
e|-------X-----------X-----------X----------X---------X-----------X-----------X-----------------------|
B|-------X-----------X-----------X----------X---------X-----------X-----------X-----------------------|
G|-------X-----------X-----------X----------X---------X-----------X-----------X------------0h2p0------|
D|-------X-----------X-----------X----------X---------X-----------X-----------X--------0h2-------2p0--|
A|-------X--0h2-3-3--X--3p2------X--0h2-3-3-X-2-------X--0h2-3-3--X--3p2------X--0h2-3----------------|
E|--3-3--X-----------X------0-0--X----------X----3-3--X-----------X------0-0--X-----------------------|


[Verse] 

    know   what you been through, I see               but it's time      to leave it behind and let it be
e|-----------X--------------------X-----------X-------------X-------------X------------------X-------------X-|
B|-----------X--------------------X-----------X-------------X-------------X------------------X-------------X-|
G|-----------X--------------------X-----------X-------------X-------------X------------------X-------------X-|
D|-----------X--------------------X-----------X-------------X-------------X------------------X-------------X-|
A|-----------X--0h2--3------3-----X--3p2------X--0h2-3-3----X----2--------X--0--h--2--3--3---X---3-p-2-----X-|
E|--3--3-----X--------------------X------0-0--X-------------X-------3--3--X------------------X---------0-0-X-|

           yeah
e|-----------------------|
B|-----------------------|
G|------------0h2p0------|
D|--------0h2-------2p0--|
A|--0h2-3----------------|
E|-----------------------|
 
      hard-earned    wisdom             is something you can't buy         it's the wings of experience that 
e|-----------X-----------------X---------------X-------------------X---------------X----------------------X--|
B|-----------X-----------------X---------------X-------------------X---------------X----------------------X--|
G|-----------X-----------------X---------------X-------------------X---------------X----------------------X--|
D|-----------X-----------------X---------------X-------------------X---------------X----------------------X--|
A|-----------X--0h2--3---3-----X--3p2----------X-----0h2---3----3--X--2------------X------0-h-2--3----3---X--|
E|--3--3-----X-----------------X------0-0------X-------------------X-----3--3------X----------------------X--|

  make you fly
e|--------------X-----------------------|
B|--------------X-----------------------|
G|--------------X------------0h2p0------|
D|--------------X--------0h2-------2p0--|
A|---3-p-2------X--0h2-3----------------|
E|---------0-0--X-----------------------|

             
[Pre-chorus]

Am7                C         D 
Don’t look back, don’t look back
Am7                       C              D 
Don’t turn around, you’re on the right track


[Chorus]   


      Keep on when your mind says quit      dream on 'til you find you're living it      I'll        
e|----------X-----------------------X--------------X------------------------X-------------X--|
B|----------X-----------------------X--------------X------------------------X-------------X--|
G|----------X-----------------------X--------------X------------------------X-------------X--|
D|----------X-----------------------X--------------X------------------------X-------------X--|
A|----------X--0--h-2----3----3-----X--3p2---------X---0-h-2---3----3-------X----2--------X--|
E|--3--3----X-----------------------X------0--0----X------------------------X-------3--3--X--|

    be   right by your side        yeah, baby,  keep on
e|-----------------X------------X--------------------------|
B|-----------------X------------X--------------------------|
G|-----------------X------------X---------------0h2p0------|
D|-----------------X------------X-----------0h2-------2p0--|
A|--0h2----3---3---X---3p2------X--0h2----3----------------|
E|-----------------X-------0-0--X--------------------------|

      Don't stop 'til you win your prize      lean on  all the love that's in my eyes   you're
e|-----------X-----------------------X--------------X-----------------------X--------------X--|
B|-----------X-----------------------X--------------X-----------------------X--------------X--|
G|-----------X-----------------------X--------------X-----------------------X--------------X--|
D|-----------X-----------------------X--------------X-----------------------X--------------X--|
A|-----------X-----0-h-2---3---3-----X--3p2---------X---0-h-2----3----3-----X-----2--------X--|
E|--3--3-----X-----------------------X------0--0----X-----------------------X--------3--3--X--|

     a  diamond to me      yes you are    shine on
e|---------------X----------X------------------------|
B|---------------X----------X------------------------|
G|---------------X----------X-------------0h2p0------|
D|---------------X----------X---------0h2-------2p0--|
A|--0h2--3---3---X-3p2------X--0h2--3----------------|
E|---------------X-----0-0--X------------------------|

                       mm-hmmm              shine on                           shine on                    
e|-------X-----------X-----------X----------X---------X-----------X-----------X---------------------|
B|-------X-----------X-----------X----------X---------X-----------X-----------X---------------------|
G|-------X-----------X-----------X----------X---------X-----------X-----------X------------2p0------|
D|-------X-----------X-----------X----------X---------X-----------X-----------X--------0h2-----2p0--|
A|-------X--0h2-3-3--X--3p2------X--0h2-3-3-X-2-------X--0h2-3-3--X--3p2------X--0h2-3--------------|
E|--3-3--X-----------X------0-0--X----------X----3-3--X-----------X------0-0--X---------------------|


Then goes solo, you can play:    

F C G
F C G
Am7 C
Am7 C D


[Chorus] 


      Keep on when your mind says quit      dream on 'til you find you're living it      I'll        
e|----------X-----------------------X--------------X------------------------X-------------X--|
B|----------X-----------------------X--------------X------------------------X-------------X--|
G|----------X-----------------------X--------------X------------------------X-------------X--|
D|----------X-----------------------X--------------X------------------------X-------------X--|
A|----------X--0--h-2----3----3-----X--3p2---------X---0-h-2---3----3-------X----2--------X--|
E|--3--3----X-----------------------X------0--0----X------------------------X-------3--3--X--|

    be   right by your side        yeah, baby,  keep on
e|-----------------X------------X--------------------------|
B|-----------------X------------X--------------------------|
G|-----------------X------------X---------------0h2p0------|
D|-----------------X------------X-----------0h2-------2p0--|
A|--0h2----3---3---X---3p2------X--0h2----3----------------|
E|-----------------X-------0-0--X--------------------------|

      Don't stop 'til you win your prize      lean on  all the love that's in my eyes   you're
e|-----------X-----------------------X--------------X-----------------------X--------------X--|
B|-----------X-----------------------X--------------X-----------------------X--------------X--|
G|-----------X-----------------------X--------------X-----------------------X--------------X--|
D|-----------X-----------------------X--------------X-----------------------X--------------X--|
A|-----------X-----0-h-2---3---3-----X--3p2---------X---0-h-2----3----3-----X-----2--------X--|
E|--3--3-----X-----------------------X------0--0----X-----------------------X--------3--3--X--|

     a  diamond to me      yes you are    shine on
e|---------------X----------X------------------------|
B|---------------X----------X------------------------|
G|---------------X----------X-------------0h2p0------|
D|---------------X----------X---------0h2-------2p0--|
A|--0h2--3---3---X-3p2------X--0h2--3----------------|
E|---------------X-----0-0--X------------------------|

                 shine on           baby, you got to shine on        
e|-------X-----------X-----------X-----------X----------------X--|
B|-------X-----------X-----------X-----------X----------------X--|
G|-------X-----------X-----------X-----------X----------------X--|
D|-------X-----------X-----------X-----------X----------------X--|
A|-------X--0h2-3-3--X--3p2------X--0h2-3-3--X-----2----------X--|
E|--3-3--X-----------X------0-0--X-----------X---------3---3--X--|

        that’s what you’re born to do           me and you
e|--------------X---------------------X------------------------|
B|--------------X---------------------X------------------------|
G|--------------X---------------------X-------------0h2p0------|
D|--------------X---------------------X---------0h2-------2p0--|
A|--0h2-3-3-----X---3p2---------------X--0h2--3----------------|
E|--------------X------------0----0---X------------------------|

                                    you got to shine on                sparkle, baby
e|-------X-----------X-----------X----------------------X---------X--------------X-----------X--|
B|-------X-----------X-----------X----------------------X---------X--------------X-----------X--|
G|-------X-----------X-----------X----------------------X---------X--------------X-----------X--|
D|-------X-----------X-----------X----------------------X---------X--------------X-----------X--|
A|-------X--0h2-3-3--X--3p2------X--0--h--2------3---3--X-2-------X--0h2----3-3--X--3p2------X--|
E|--3-3--X-----------X------0-0--X----------------------X----3-3--X--------------X------0-0--X--|


e|------------------------|
B|------------------------|
G|-------------0h2p0------|
D|---------0h2-------2p0--|
A|--0h2--3----------------|
E|------------------------|

                    shine on
e|-------X-----------X-----------X----------X---------X-----------X-----------X--|
B|-------X-----------X-----------X----------X---------X-----------X-----------X--|
G|-------X-----------X-----------X----------X---------X-----------X-----------X--|
D|-------X-----------X-----------X----------X---------X-----------X-----------X--|
A|-------X--0h2-3-3--X--3p2------X--0h2-3-3-X-2-------X--0h2-3-3--X--3p2------X--|
E|--3-3--X-----------X------0-0--X----------X----3-3--X-----------X------0-0--X--|

          baby, you got to 
e|------------------------|
B|------------------------|
G|-------------0h2p0------|
D|---------0h2-------2p0--|
A|--0h2--3----------------|
E|------------------------|

  G
shine on...
Suggest correction
Give kudos to tab author, rate the tab!
1 2 3 4 5
comments
print report bad tab
guest
You may want to rate the tab now too:
select rating
Wanna post a correction for this tab? Suggest correction