Oops, an error
Loading. Please wait.

Creepin bass

1,488 views 3 this week
1 commentread comment
1 2 3 4 5
1 last vote to show rating
add to favorites
×
Save as Personal and add changes to this tab that will be seen only by you. Learn more ›
×
You can save this tab as Personal to edit and correct it or add notes. All changes will be seen only by you. Learn more »
launch autoscroll
font size
0
reset
guitar tuner
edit
Autoscroll
slow
fast
+/-
esc
set tempo
stop
-----------------------------------------------------------------------------
                             Creepin' - Eric Church
-----------------------------------------------------------------------------

Tabbed by: Country Bass
E-mail: aaron.white8@education.nsw.gov.au

Great song by a great country artist, I hope this tabs of help

Tuning: Standard

Bass enters at 0:47

Verse 2:

G|-----------------|
D|-----------------|
A|--0----5-0----0--| x8
E|-----3------3----|

Chorus 1:

G|--------------------------|
D|--------------------------|
A|--0--0--------5--5--0--0--| x2
E|--------3--3--------------|

G|-----------------|
D|-----------------|
A|--0----5-0----0--| x4
E|-----3------3----|

Verse 3:

G|-------------------------|
D|-------------------------|
A|-0-----------------------| hold note for entire verse 
E|-------------------------|

then

G|-----------------|
D|-----------------|
A|--0----5-0----0--| x4
E|-----3------3----|

Chorus

G|-----------------------------------|
D|-----------------------------------|
A|--0-0-0-0---------5-5-5-5-0-0-0-0--| x2
E|----------3-3-3-3------------------|

G|-----------------------------------|
D|-----------------------------------|
A|--0-0-0-0---------5-5-5-5-0---5-0--| x4
E|----------3-3-3-3-----------3------|

Breakdown

"Break it down"
G|--------------------|
D|--------------------|
A|--0------5-0-----0--| play twice, then the resonator plays the riff twice 
E|------3--------5----|

"just last night"
G|--------------------|
D|--------------------|
A|--0------5-0-----0--| x3
E|------3--------5----|

G|--------------------|
D|--------------------|
A|-0------------------|
E|--------------------|

Resonator plays the riff 4 times, then the bass comes back

G|--------------------|
D|--------------------|
A|--0------5-0-----0--| x4
E|------3--------5----|

Outro

G|-----------------------------------|
D|-----------------------------------|
A|--0-0-0-0---------5-5-5-5-0---5-0--| x4
E|----------3-3-3-3-----------3------|

G|-----------------------|
D|-----------------------|
A|--0---------5------0---| x2
E|-------3---------3-----|

The whole breakdown section the bass is played softer then the rest of the song, 
in the parts before and after the breakdown section the bass is played hard


| /  slide up
| \  slide down
| h  hammer-on
| p  pull-off
| ~  vibrato
| +  harmonic
| x  Mute note
=============================================================================

            
            
Suggest correction
Creating personal tab
Creating personal tab
You can edit any tab online and save it as your Personal.

You can edit, replace or remove any tab part or add personal notes – all changes will be seen only by you.

Personal tabs can be accessed anytime from any device, even offline.
Learn more »
Give kudos to tab author, rate the tab!
1 2 3 4 5
comments
print report bad tab
1 comment total.
0 reply
kylestacy98 10 Nov 05, 2015 01:07 PM

Not it at all!!

guest
You may want to rate the tab now too:
select rating
Wanna post a correction for this tab? Suggest correction