Oops, an error
Loading. Please wait.

Creepin Tab

version 1
version 1

Whole song

21,263 views 87 this week
3 commentsread comments
1 2 3 4 5
x 10
add to favorites
launch autoscroll
font size
0
reset
how to read this tab
guitar tuner
×
Best way to learn
"Creepin"
Autoscroll
slow
fast
+/-
esc
set tempo
stop
Author
Difficulty
Tuning
  follow
intermediate
D A D G B E
Tuning: Drop D

[Intro]            
(This part) can be interchanged with below.
e|-----------------0---3---3------------------------------------------------|
B|-----------------2---3---3------------------------------------------------|
G|-----------------3---0---0------------------------------------------------|
D|------0----------0---0---0---3h5-3p0--------------------------------------|
A|--0h3----------------3---2------------3p0---------------------------------|
E|---------3p0-------------------------------3p0----------------------------|
          
e|---------0---3---3-------------------------------------------------|
B|---------2---3---3-------------------------------------------------|
G|---------3---0---0-------------------------------------------------|
D|---------0---0---0---3h5-3p0------0--------------------------------|
A|-------------3---2------------3p0----------------------------------|
E|-------------------------------------------------------------------|

e|-----------0---3---3------------------------------------------------|
B|-----------2---3---3------------------------------------------------|
G|-----------3---0---0------------------------------------------------|
D|-----------0---0---0-------------0----------------------------------|
A|---------------3---2--------0h3-------------------------------------|
E|-----------------------3p0------------------------------------------|

e|-----------------0---3---3------------------------------------------|
B|-----------------2---3---3------------------------------------------|
G|-----------------3---0---0------------------------------------------|
D|-----------------0---0---0------------------------------------------|
A|---------------------3---2---5---3---0------------------------------|
E|-----------------------------5---3---0------------------------------|

(I actually play the intro to this song this way.  I just think it sounds better but 
y'all can obviously pick which one suits you best.)

[how I play it]
e|--------------------------------------------------------------------------|
B|--------------------------------------------------------------------------|
G|-----------------5h7-7-7-5---5/4------------------------------------------|
D|------0----------0---0-0-0---0/0--3h5--3p0--------------------------------|
A|--0h3-------------------------------------3p0-----------------------------|
E|---------3p0---------------------------------3p0--------------------------|

e|-------------------------------------------------------------------|
B|-------------------------------------------------------------------|
G|------5h7-7-7-5---5/4----------------------------------------------|
D|------0---0-0-0---0/0----3h5-3p0------0----------------------------|
A|---------------------------------3p0-------------------------------|
E|-------------------------------------------------------------------|

e|--------------------------------------------------------------------|
B|--------------------------------------------------------------------|
G|-----5h7-7-7-5---5/4------------------------------------------------|
D|-----0---0-0-0---0/0-------------0----------------------------------|
A|----------------------------0h3-------------------------------------|
E|-----------------------3p0------------------------------------------|

e|--------------------------------------------------------------------|
B|--------------------------------------------------------------------|
G|----------5h7-7-7-5---5/4-------------------------------------------|
D|----------0---0-0-0---0/0-------------------------------------------|
A|-----------------------------5---3---0------------------------------|
E|-----------------------------5---3---0------------------------------|

[Verse] 
(strum this one chord for a while)
e|-----0----------------------------------------------------------------------|
B|-----3----------------------------------------------------------------------|
G|-----2----------------------------------------------------------------------|
D|-----0----------------------------------------------------------------------|
A|----------------------------------------------------------------------------|
E|----------------------------------------------------------------------------|

[Pre-Chorus] 
("creepin', ya creepin")
e|-----0---0---0---0---0---0---0---0---0------------------------------------|
B|-----3---3---3---3---3---3---3---3---3------------------------------------|
G|-----2---2---2---2---2---2---2---2---2------------------------------------|
D|-----0---0---0---3---0---0---0---0---0------------------------------------|
A|---------------------------------3----------------------------------------|
E|--------------------------------------------------------------------------|

[Chorus]  
          D   G   G/B  D
e|--------0---3----3---0---------------------------------------------|
B|--------2---3----3---3---------------------------------------------|
G|--------3---0----0---2---------------------------------------------|
D|--------0---0----0---0---------------------------------------------|
A|------------3----2-------------------------------------------------|
E|-------------------------------------------------------------------|



************************************

| h  Hammer-on
| p  Pull-off
| /  Slide up

************************************
Suggest correction
comments
print report bad tab
3 comments total.
+1 reply
skaterbillx 11 Jun 18, 2013 09:21 AM

good job i like

0 reply
cole931 31 Feb 08, 2014 05:00 PM

good job man it should be tuned a whole step down to play to the recording though! (CGCFad) 5 stars still!

0 reply
Scottroddan 10 Aug 10, 2014 12:48 PM

Lack of accuracy.

guest
You may want to rate the tab now too:
select rating
Wanna post a correction for this tab? Suggest correction