Oops, an error
Loading. Please wait.

Drink In My Hand bass

version 1
version 1

Whole song

4,253 views 18 this week
no commentswrite comment
1 2 3 4 5
1 last vote to show rating
add to favorites
×
Save as Personal and add changes to this tab that will be seen only by you. Learn more ›
×
You can save this tab as Personal to edit and correct it or add notes. All changes will be seen only by you. Learn more »
launch autoscroll
font size
0
reset
guitar tuner
edit
Autoscroll
slow
fast
+/-
esc
set tempo
stop
-----------------------------------------------------------------------------
                     Drink In My Hand - Eric Church
-----------------------------------------------------------------------------

Tabbed by: Country Bass
E-mail: aaron.white8@education.nsw.gov.au

Tuning: Standard

Verse

Going into the first verse, do a slide on the E string, it sounds really cool going into the riff

G|-----------------------------|
D|-----------------------------|
A|-------6--6--3--3------------| x4
E|--3-3--------------3--3-3-3--|

Chorus

G|--------------------------|
D|--------------------------|
A|--5--5--5-5--3-3----------| x2
E|------------------3--3-3--|

G|-----------------------------|
D|-----------------------------|
A|-------6--6--3--3------------| x2
E|--3-3--------------3--3-3-3--|

Interlude

G|----------------------------|
D|----------------------------|
A|----------------------------| x2
E|--3--3---3-3--3--3-3--3--3--|

Bridge

G|------------------------------------------------------------|
D|------------------------------------------------------------|
A|--------------------------------3-3--3-3-3--3-3-3--3-3-3--3-| x2
E|--3-3-3--3-3-3--3-3-3--3-3-3--3-----------------------------|

Verse 3

Pause for 1 chord progression

G|----------------------------|
D|----------------------------|
A|-------6-6--6-3-3-----------|
E|--3--3-------------3--3-3---|

G|-----------------------------------------------------------------|
D|-----------------------------------------------------------------|
A|----------6-6-6-6-3-3-3-3-----------------6-6-6-6-3--3-----------|
E|--3-3-3-3-----------------3-3-3-3-3-3-3-3--------------3--3-3-3--|

Verse 4

pause till 'Bang Bang Bang, while it ring ring rings'

G|--------------------------------------------|
D|--------------------------------------------|
A|----------------------------3-3-3-----------|
E|------------------3--3--3---------3--3-3-3--|

G|-----------------------------|
D|-----------------------------|
A|-------6--6--3--3------------| 
E|--3-3--------------3--3-3-3--|

Pause until '...drink in my hand'

G|-----------------------------|
D|-----------------------------|
A|-------------3-3-3-----------|
E|-------------------3--3-3-3--|

Outro

G|-----------------------------|
D|-----------------------------|
A|-------6--6--3--3------------| x3
E|--3-3--------------3--3-3-3--| 


Playing Order

Verse
Chorus
Interlude
Verse
Chorus
Bridge
Verse 3
Chorus 
Verse 4
Chorus
Outro



Have Fun


| /  slide up
| \  slide down
| h  hammer-on
| p  pull-off
| ~  vibrato
| +  harmonic
| x  Mute note
=============================================================================

            
            
Suggest correction
Creating personal tab
Creating personal tab
You can edit any tab online and save it as your Personal.

You can edit, replace or remove any tab part or add personal notes – all changes will be seen only by you.

Personal tabs can be accessed anytime from any device, even offline.
Learn more »
Give kudos to tab author, rate the tab!
1 2 3 4 5
comments
print report bad tab
guest
You may want to rate the tab now too:
select rating
Wanna post a correction for this tab? Suggest correction