Oops, an error
Loading. Please wait.

Before You Accuse Me Tab

version 2
version 2

Whole song

Interactive

73,658 views 168 this week
1 commentread comment
1 2 3 4 5
accurate
x 10
add to favorites
launch autoscroll
font size
0
reset
how to read this tab
guitar tuner
Autoscroll
slow
fast
+/-
esc
set tempo
stop
Help us to improve Ultimate-Guitar.com Take our survey!
×
Author
This is the part Eric Clapton plays, but maybe here and there some notes of 
Andy Fairweather Low sneeked in. 

Chords:
E7      0xx434
E°7     0xx323
Am6/e   0xx212
E       022100
B7      021202
Em      022000
E5      02xxxx  
E6      04xxxx
A5      x022xx
A6      x04xxx
A7      x020xx
A#m/d#  xx1321
Bm/e    xx2432


[Intro]

       E7                            E°7         Am6/e 
e|---3/4-4-4-4---4-----------4---4---3---3---3---2---2-------------------|
B|---2/3-3-3-3---3-----------3---3---2---2---2---1---1-------------------|
G|---3/4-----4-----------------------3---3-----------2---------0h1p0h1---|
D|-----------------------------------------------------------------------|
A|-----------------------------------------------------------------------|
E|-0-0---0-0-0-------0---0---0---0---0-----0---0-0-------0---0-----------|

   E                         B7
e|-0-3-0-3-0---0---------0-----------------------------------------------|
B|---3-0-3-0-3-----------0-----0---0------0------------------------------|
G|---------------2---0h1--------------------2-2--------------------------|
D|---------------------2-------------------------------------------------|
A|---------------------------2-------------------------------------------|
E|-----------------------------------------------------------------------|
                           

[Chorus]

   Em  E7        E5 E6 Em      A5    A6  A5      A6  A5    
e|-0-3/4---4-4-----------------------------------------------------------|
B|-0-2/3---3-3-----------0-----------------------------------------------|
G|-0-3/4---4-4-----------0-----2-----------------------------------------|
D|-----------------------------2---2-4---4-2---2-4---4-------------------|
A|---------------2-4-------0-0-0---0-0---0-0---0-0---0-------------------|
E|-0-0-----0-----0-0---0-------------------------------------------------|
  Before you accuse me              take a look at your

   E5    E6  E5    E6      E5          E6  E5      E6  E5    
e|-----------------------------------0-----------------------------------|
B|-----------------------------------0-----------------------------------|
G|-------------------2---2-0h1p0h1---------------------------------------|
D|-------------------2---2-----------------------------------------------|
A|-2---2-4---4-2-----------------------4---4-2---2-4---2-----------------|
E|-0---0-0---0-0---0---0---------------0---0-0---0-0---0-----------------|
  self
                                 
   A5    A6    A5     A6    A5    A6  A5      A6 
e|------------------0-3p0-3-0--------------------------------------------|
B|------------------2-------2--------------------------------------------|
G|-2----------------------------2----------------------------------------|
D|-2---2-4---4-2----------------2-4---4-2---2-4---4----------------------|
A|-0---0-0---0-0----------------0-0---0-0---0-0---0----------------------|
E|-----------------------------------------------------------------------|
Before you accuse me             take a look at your

   E     E6    E5    E6      E     E6    E5    E6  E5 
e|-----------0-----0---------0---0---------0-----------------------------|
B|-------0---0-3---0---------0-----3-2-0---0-----------------------------|
G|-----1-1-----------2---0h1-1-----------2-------------------------------|
D|-----2-------------------2---------------------------------------------|
A|-2-------------------------------------------0-0-1---------------------|
E|-0-----------------------------------------0---------------------------|
  self
                            
   B7                      A5    A6  A5 A7   A6  A5
e|-------2-----2---2-2---------------------------0-----------------------|
B|-------0-----0---0-0-----------------2---2-----0-----------------------|
G|-----2-------------------2---2-------0---0-----------------------------|
D|---1---------------------2---2-4---2-2---2-4---------------------------|
A|-2---------2-------2---2-----0-0---0-------0---------------------------|
E|-----------------------------------------------------------------------|
Say I'm spend-in' my money on other women
                            you tak-in' money from someone 

   E       E7               E   B7       
e|-----0-3/4-0-4-0--0-------0-----2---2---2-2-2--------------------------|
B|-----0-2/3-3-3--3-0-------0-----0---0---0-0-0--------------------------|
G|-------3/4------4---2-0---1--------------------------------------------|
D|------------------------2----------------------------------------------|
A|------------------------------2-------2--------------------------------|
E|-0---------------------------------------------------------------------|
  else


[Verse 1]

   E E5    E6  E5      E6 E5 A5    A6    A5    A6  A5   
e|-----------------------------------------------------------------------|
B|-----------------------0-------------------------0---------------------|
G|-1-----------------------------------------------0---------------------|
D|-2-----------------------0-2---2-4---4-2---2-4-------------------------|
A|---2---2-4---2-2---2-4-----0---0-0---0-0---0-0-------------------------|
E|---0---0-0---0-0---0-0-------------------------------------------------|
 I called your mama               bout three four nights  
   
   E5    E6    E5  E6      E5          E6    E5    E6  E5   
e|-----------------------------------0-----------------------------------|
B|-----------------------------------0---------------0-------------------|
G|-------------------2---2-0h1p0h1---------------------------------------|
D|-------------------2---2-----------------------------0-----------------|
A|-2---2-4---4-2---0---0---------------4---4-2---2-4---------------------|
E|-0---0-0---0-0---0-------------------0---0-0---0-0---------------------|
  ago
                                   
   A5    A6    A5    A6    A5    A6    A5    A6  A5
e|-----------------------------------------------------------------------|
B|-----------------------------------------------0-----------------------|
G|-----------------------------------------------0-----------------------|
D|-2---2-4---4-2---2-4---4-2---2-4---4-2---2-4---------------------------|
A|-0---0-0---0-0---0-0---0-0---0-0---0-0---0-0---------------------------|
E|-----------------------------------------------------------------------|
 I called your mama             bout three four nights  
   
   E       E7                          E        
e|-----0-3/4-0-4-0---------------------0-----------0-------0-------------|
B|-----0-2/3-3-----0-0---0---0---------0-3-2-0-----0-------0-------------|
G|-------3/4-----------2---2-0h1p0h1-----------2-------------------------|
D|-----------------------------------------------------------------------|
A|-2---------------------------------------------------------0-0-1-------|
E|-0---------------------------------------------------0-----------------|
  ago
                                     
   B7                       A   A5 A6 A5 A7   A6  A5 
e|------2---2---2---2----------------------------------------------------|
B|------0---0---0---0-0-----2---------------------0----------------------|
G|------2---2---2---2-2-----2-----------0---0-----0----------------------|
D|--------------------1-----2---2-4---4-2---2-4--------------------------|
A|-2------2-----2---2-2---2-0---0-0---0-------0--------------------------|
E|-----------------------------------------------------------------------|
  well your mama said son,       don't call my daughter no 

   E       E7                E  B7                                     
e|-----0-3/4-0-4-0-----------0----2---2---2-2-2--------------------------|
B|-----0-2/3-3-3---3-0-------0----0---0---0-0-0---0----------------------|
G|-------3/4-----------2-2---1----2---2---2-2-2---0----------------------|
D|-------------------------2---------------------------------------------|
A|------------------------------2---2------------------------------------|
E|-0---------------------------------------------------------------------|
  more

[Chorus]

   E5    E6  E5    E6   E5 A5    A6    A5    A6  A5                                  
e|-----------------------------------------------0-----------------------|
B|-----------------------------------------------0-----------------------|
G|-------------------0---0-2---------------------------------------------|
D|-------------------0---0-2---2-4---4-2---2-4---------------------------|
A|-2---2-4---4-2-----------0---0-0---0-0---0-0---------------------------|
E|-0---0-0---0-0---0---0-------------------------------------------------|
 Before you accuse me           take a look at your

   E       E7                      E°7   E7
e|-----0-3/4-0-4-4-4-4-4-4-4-4-4-4-3---3-4---4---------------------------|
B|-----0-2/3-3-3-3-3-3-3-3-3-3-3-3-2---2-3---3---------------------------|
G|-------3/4---4-------4-----4-----3---3-4---4---0h1---------------------|
D|---------------------------------------------2-----2-------------------|
A|-2---------------------------------------------------------------------|
E|-0---------------------------------------------------------------------|
  self
                                
   A6    A6    A5    A6     A5    A6    A5    A6  A5 
e|-----------------------------------------------------------------------|
B|------------------------------------------------0----------------------|
G|------------------------------------------------0----------------------|
D|-2---2-4---4-2---2-4----4-2---2-4---4-2---2-4--------------------------|
A|-0---0-0---0-0---0-0----0-0---0-0---0-0---0-0--------------------------|
E|-----------------------------------------------------------------------|
 Before you accuse me            take a look at your  
 
   E       E7                  E                 
e|-----0-3/4-0-4-0-------------0---0-----------0-------------------------|
B|-----0-2/3-3-3---3-0---------0---0-3-2-0-----0-------------------------|
G|-------3/4-----------2-0h1---------------2-----------------------------|
D|---------------------------2-------------------------------------------|
A|-2-----------------------------------------------0-1-------------------|
E|-0-------------------------0-------------------0-----------------------|
  self
                                   
   B7                    A5      A6  A5 A7   A6  A5  
e|-------2-----2---2-----------------------------------------------------|
B|-------0---0-0---0-----------------------------0-----------------------|
G|-----2-----2-2---2-------------------0---0-----0-----------------------|
D|-------------------------2---2-4---2-2---2-4---------------------------|
A|-2-----------------2---0-0---0-0---0-----------------------------------|
E|-----------------------------------------------------------------------|
 You say I'm spend-in' my money on other women 
                                You're tak-in' money from someone 

   E       E7                E   B7   
e|-----0-3/4-0-4-0-----------0-------------------------------------------|
B|-----0-2/3-3-3---3-0-------0-----0---0---0---0-------------------------|
G|-------3/4-----------2-0---1-----2---2---2---2-------------------------|
D|-------------------------2---------------------------------------------|
A|-2-----------------------------2-------2---2---------------------------|
E|-0-----------------------0---------------------------------------------|
  else            


[Solo 1]

   E    E5       E6       E5       E6   E5 E7        
e|-0--9/10-10-10-10-10-10-10-10-10-9----9--7---0-------------------------|
B|-0-10/12-12-12-12-12-12-12-12-12-10---10-8---0-------------------------|
G|-----------------------------------------------------------------------|
D|-----------------------------------------------4---4-2---2-4-----------|
A|-----------------------------------------------0---0-0---0-0-----------|
E|-----------------------------------------------------------------------|

   E    E5       E6       E5       E6          E5       E6    E5 E7              
e|-0--9/10-10-10-10-10-10-10-10-10-10-10-10--9/10-10-10-9--9--9--7---0---|
B|-0-10/12-12-12-12-12-12-12-12-12-12-12-12-10/12-12-12-10-10-10-8---0---|
G|-----------------------------------------------------------------------|
D|-----------------------------------------------------------------------|
A|-----------------------------------------------------------------------|
E|---------------------------------------------------------------------0-|

     A5      A6    A5    A6    A5    A6    A7     
e|-----------------7-6-5-------7-6-5---5---------0-----------------------|
B|-----------5---5-------8---5-------8---8-5---5-5-----------------------|
G|---2---4/6---6-----------------------------6---------------------------|
D|---2-------------------------------------------------------------------|
A|-0---------------------------------------------------------------------|
E|-----------------------------------------------------------------------|

   E     E7                          E°7 E7
e|-0---3/4-4-4-4-4-4---4-------4---4-3---4-----4-------------------------|
B|-0---2/3-3-3-3-3-3---3-------3---3-2---3-----3-------------------------|
G|-----3/4-4-4-4-4-4---4-------4---4-3---4-----4-------------------------|
D|-----------------------------------------------------------------------|
A|-----------------------------------------------------------------------|
E|---------0-0-0-0-0-----0---0-0---0-0---0-0-----0-----------------------|

           B7                   A7
e|-----0-0-9-8-7------0---0-----------7-6-5---5--------------------------|
B|---------------10-------------5---5-------8---8-5-----5----------------|
G|-4/8----------------------2/6---6-----------------6-7------------------|
D|-----------------------------------------------------------------------|
A|-----------------------------------------------------------------------|
E|-----------------------------------------------------------------------|

   E E7                E     B7                
e|-0-4-0-4-0-----------0-----2---2---2---2---0---------------------------|
B|-0-3-3-3-3-3-0-------0-----0---0---0---0---0---------------------------|
G|---4-----------2-0-------------------------0---------------------------|
D|-------------------2---------------------------------------------------|
A|-------------------------2-------2---2---------------------------------|
E|-----0-----------------------------------------------------------------|


[Verse 2]

   E5      E6      E5      E6 E5 A5    A6    A5    A6  A5
e|-----------------------------------------------------------------------|
B|-----------------------------------------------------0-----------------|
G|-----------------------------------------------------0-----------------|
D|-------------------------------2---2-4---4-2---2-4---------------------|
A|-2----2--4----4--2----2------0-0---0-0---0-0---0-0---------------------|
E|-0----0--0----0--0----0--0h3-------------------------------------------|
 Come on back home baby               try my love one more 

   E5      E6      E5      E6      E5      E6    E5          E6  E5
e|------0-/4-0-4-0-----------------------------------0-------------------|
B|------0-/3-3-3---3-0-----------3-2-0---0-----------0-------------------|
G|---------4-----------2-2---0h1-------2---0h1p0h1p0---------------------|
D|-------------------------2-------------------------------0-------------|
A|-2---------------------------------------------------0-----------------|
E|-0---------------------------------------0-----------0-----------------|
  time

   A5    A6    A5    A6    A5    A6    A5    A6  A5
e|-----------------------------------------------------------------------|
B|-----------------------------------------------0-----------------------|
G|-----------------------------------------------0-----------------------|
D|-2---2-4---4-2---2-4---4-2---2-4---4-2---2-4---------------------------|
A|-0---0-0---0-0---0-0---0-0---0-0---0-0---0-0---------------------------|
E|-----------------------------------------------------------------------|
 Come on back home baby         try my love one more 

   E5     E6    E5    E6    E5      E6    E5    E6  E5              
e|-----0-/4-0-4-0-------------------------------0------------------------|
B|-----0-/3-3-3-3-0-0-----------3-2-0---0-------0------------------------|
G|-------/4-----------2-2---0h1-------2---0h1----------------------------|
D|------------------------2---------------2------------------------------|
A|-2---------------------------------------------------------------------|
E|-0------------------------------------------------0--------------------|
  time

   B7                      A5    A6  A5 A7  A6 A5         
e|-2---2---2---2-----2---------------------------------------------------|
B|-0---0---0---0-----0-------------------2---2-----0---------------------|
G|-2---2---2---2-----2-------2-----------0---0-----0---------------------|
D|---------------------------2---2-4---2-2---2-4-------------------------|
A|-2-2---2-2-----2-----2---2-0---0-0---0-------0-------------------------|
E|---------------------------------------------------0-------------------|
  You know if things don't go to suit you, 
                              I think I'll lose my mind

   E   E7                      B7        
e|-0-----------------------------2---2---2---2---------------------------|
B|-0-----------------------------0---0---0---0---------------------------|
G|---------4-----3-----2-------------------------------------------------|
D|-----------------------------------------------------------------------|
A|-----4/5---5-4---4-3---3-2---2-------2---2-----0-----------------------|
E|-----------------------------------------------0-----------------------|


[Chorus]

   E5    E6  E5      E6    A5   A6  A5      A6  A5
e|-----------------------------------------------------------------------|
B|----------------------------------------------0------------------------|
G|----------------------------------------------0------------------------|
D|-------------------------2--2-4---4-2---2-4----------------------------|
A|-2---2-4---4-2---2-4---0-0--0-0---0-0---0-0----------------------------|
E|-0---0-0---0-0---0-0---0-----------------------------------------------|
  Before you accuse me         Take a look at your  

   E5     E6    E5    E6      E5    E6    E5 E7       
e|-----0-/4-4-4-4-4-4-4-4-4-3/4-4-4-3-3-3-4-4-4-4------------------------|
B|-----0-/3-3-3-3-3-3-3-3-3-2/3-3-3-2-2-2-3-3-3-3------------------------|
G|-------/4-----------------3/4-----3-----4---4-4------------------------|
D|-----------------------------------------------------------------------|
A|-2------------------------------------------------0--------------------|
E|-0------------------------------------------------0--------------------|
  self
 
   A5   A6    A5    A6    A5    A6    A5    A6  A5
e|-----------------------------------------------------------------------|
B|----------------------------------------------0------------------------|
G|----------------------------------------------0------------------------|
D|-2--2-4---4-2---2-4---4-2---2-4---4-2---2-4----------------------------|
A|-0--0-0---0-0---0-0---0-0---0-0---0-0---0-0----------------------------|
E|-----------------------------------------------------------------------|
  Before you accuse me         Take a look at your 

   E5    E6    E5    E6    E5        E6      E5    E6 E5           
e|-----0-3-2-0---------0---0---------0-------------0---------------------|
B|-----0-0-----3-2-0---0-0-0---------0-3-2-0-------0---------------------|
G|-----0-------------2---2-0h1p0h1-----------2-1h2-----------------------|
D|-----------------------------------------------------------------------|
A|-2-------------------------------------------------0-1-----------------|
E|-0---------------------------------------------------------------------|
  self

   B7                      A5    A6  A5 A7   A6 A5   
e|-----2-2---2---2---2---------------------------------------------------|
B|-----0-0---0---0---0-----------------2---2-----------------------------|
G|-------------------------------------0---0-----------------------------|
D|---1---------------------2---2-4---2-2---2-4---2-----------------------|
A|-2-----2-----2---2-2---2-0---0-0---0-------0---0-----------------------|
E|-----------------------------------------------------------------------|
  You say I'm spend-in' my money on other women, 
                                you tak-in' money from someone else

   E      E7              E         B7                  
e|-----0-/4-0-4-0--------------------2---2-------2-----------------------|
B|-----0-/3-3-3-3-3-0----------------0---0-------0-----------------------|
G|-1-----/4-----------2-0---0h1p0------------2---------------------------|
D|-2----------------------2----------------------------------------------|
A|-2--------------------------------2------2---2-------------------------|
E|-0---------------------------------------------------------------------|


[Solo 2]

   E    E5       E6       E5       E6 E5 E7           
e|-0--9/10-10-10-10-10-10-10-10-10-9--9--9--7---0------------------------|
B|-0-10/12-12-12-12-12-12-12-12-12-10-10-10-8---0------------------------|
G|-0---------------------------------------------------------------------|
D|------------------------------------------------4---4-2---2-4----------|
A|------------------------------------------------0---0-0---0-0----------|
E|-----------------------------------------------------------------------|

   E    E5       E6       E5       E6       E5          E6   E5 E7           
e|-0--9/10-10-10-10-10-10-10-10-10-10-10-10-------10-12------------------|
B|-0-10/12-12-12-12-12-12-12-12-12-12-12-12-10/12-------8h10---10-8------|
G|-----------------------------------------------------------9--------9--|
D|-----------------------------------------------------------------------|
A|-----------------------------------------------------------------------|
E|-----------------------------------------------------------------------|

   A5    A6  A5    A6    A5      A6  A7      
e|-------7-6-5---5---------------------7-6-5---5-------------------------|
B|-----5-------8---8-5---5-------5---5-------8---8-5---5-5---------------|
G|-4/6-----------------6-----4/6---6-----------------6-------------------|
D|-----------------------------------------------------------------------|
A|-----------------------------------------------------------------------|
E|-----------------------------------------------------------------------|

   E5    E6    E5    E6      E5    E6      E5  
e|-0-4-0-4-0-----------0-------------------------------------------------|
B|-0-3-------3-0---------3-2-0---0---------------------------------------|
G|---------------2-0-----------2---0h1p0h1p0-----------------------------|
D|-------------------2---------------------------------------------------|
A|-----------------------------------------------------------------------|
E|-----------------------------------------------------------------------|

   E6 E5 B7                      A5                A7
e|-----------2-2---2-----0-----------3/7-6---5---------------------------|
B|-----------0-0---0-----0---------------------8---5-----5---------------|
G|---------------------------------------------------6-------------------|
D|---------1-------------------0-2---------------------------------------|
A|---0-1-2-----------2-----4---------------------------------------------|
E|-4---------------------------------------------------------------------|

   E     E7        E   A#m/d# Bm/e
e|-7-7---0-0-------0-----1----2------------------------------------------|
B|-8-8---5-0-0-----------2----3------------------------------------------|
G|-----------2-1h2-------3----4------------------------------------------|
D|---------------------1------2------------------------------------------|
A|-----------------------------------------------------------------------|
E|-----------------------------------------------------------------------|



************************************

| h  Hammer-on
| p  Pull-off
| /  Slide up

************************************
Suggest correction
What's this?
You can suggest a correction to this tab. Community and Mods will review your correction and vote to approve or reject it.
comments
print report bad tab
1 comment total.
0 reply
Chris Doust 20 wrote on July 6 2016, 11:28 am

Thank you Mr Tuyp, not only for taking the time to put this up but some exact chords for me to try :)

guest
You may want to rate the tab now too:
select rating
Please do not post tabs as comments. Select "correction" instead!