Oops, an error
Loading. Please wait.

Call Me The Breeze Live bass

838 views 3 this week
3 commentsread comments
1 2 3 4 5
3 more votes to show rating
add to favorites
×
Save as Personal and add changes to this tab that will be seen only by you. Learn more ›
×
You can save this tab as Personal to edit and correct it or add notes. All changes will be seen only by you. Learn more »
launch autoscroll
font size
0
reset
guitar tuner
edit
Autoscroll
slow
fast
+/-
esc
set tempo
stop
Author
Difficulty
JJ CALE & ERIC CLAPTON
They call me the breeze (Live version)

(from Crossroads - Guitar Festival)

Bass Tab

Tuning: EADG
Tempo: ??? 
Key signature: E


Intro: 00:01 
G|-----------------------------------------|-
D|------  Guitar playing  / Drums  --------|- 
A|-----------------------------------------|-
E|-----------------------------------------|-

Bass starts: 00:10 
G|--------------------|--------------------|- 
D|-2r-------2r--------|-2r-------2r--------|-
A|----2--2h-----2-4-2-|----2--2h-----------|- 
E|--------------------|--------------7-5-4-|-

G|--------------------|--------------------|- 
D|----------2r--------|-2r-------2r--------|-
A|----2--2h-----2-3-4-|----2--2h-----------|- 
E|-0r-----------------|--------------7-5-4-|-

G|--------------------|--------------------|- 
D|----------2r--------|-2r-------2r--------|-
A|----2--2h-----2-4-2-|----2--2h-----------|- 
E|-0r-----------------|--------------7-5-4-|-

Guitar solo: 00:29 (JJ Cale playing)
G|--------------------|--------------------|- 
D|-2r-------2r--------|-2r-------2r--------|-
A|----2--2h-----2-4-2-|----2--2h-----------|- 
E|--------------------|--------------7-5-4-|-

G|--------------------|--------------------|- 
D|----------2r--------|-2r-------2r--------|-
A|----2--2h-----2-3-4-|----2--2h-----------|- 
E|-0r-----------------|--------------7-5-4-|-

G|--------------------|--------------------|- 
D|----------2r--------|-2r-------2r--------|-
A|----2--2h-----2-4-2-|----2--2h-----------|- 
E|-0r-----------------|--------------7-5-4-|-

G|--------------------|--------------------|- 
D|----------2r--------|-2r-------2r--------|-
A|----2--2h-----2-3-4-|----2--2h-----------|- 
E|-0r-----------------|--------------7-5-4-|-


Verse1: 00:53
G|--------------------|--------------------|- 
D|-2r-------2r--------|-2r-------2r--------|-
A|----2--2h-----2-4-2-|----2--2h-----------|- 
E|--------------------|--------------7-5-4-|-
I got that green light, baby
I got to be movin' out of here
G|--------------------|--------------------|- 
D|----------2r--------|-2r-------2r--4-2---|-
A|----2--2h-----2-3-4-|----2--2h---------4-|- 
E|-0r-----------------|--------------------|-

G|--------------------|--------------------|-
D|--------------------|--------------------|- 
A|--------------------|--------------------|-
E|-5r-0r--0-5r--0-3-4-|-5r-0r--0-5r--7-5-4-|-
I got that green light, baby
I got to be movin' out of here

G|--------------------|--------------------|- 
D|----------2r--------|-2r-------2r--------|-
A|----2--2h-----2-4-2-|----2--2h-----------|- 
E|-0r-----------------|--------------4-5-6-|-
I might go out to California

G|--------------------|--------------------|-
D|--------------------|--------------------|- 
A|-2r-------2r------2-|--------------4-2---|-
E|----2--2h-----2-3---|-5r-0r--0-5r------5-|-
I might go down to Georgia, might stay here

G|--------------------|--------------------|- 
D|-2r-------2r--------|-2r-------2r--------|-
A|----2--2h-----2-4-2-|----2--2h-----2-4-2-|- 
E|--------------------|--------------------|-


Verse2: 01:31
G|--------------------|--------------------|- 
D|-2r-------2r--------|-2r-------2r--------|-
A|----2--2h-----2-4-2-|----2--2h-----------|- 
E|--------------------|--------------7-5-4-|-
Well, they call me the breeze
I keep rollin' down the road
G|--------------------|--------------------|- 
D|----------2r--------|-2r-------2r--4-2---|-
A|----2--2h-----2-3-4-|----2--2h---------4-|- 
E|-0r-----------------|--------------------|-

G|--------------------|--------------------|-
D|--------------------|--------------------|- 
A|--------------------|--------------------|-
E|-5r-0r--0-5r--0-3-4-|-5r-0r--0-5r--7-5-4-|-
Yeah now, they call me the breeze
I keep rollin' down the road

G|--------------------|--------------------|- 
D|----------2r--------|-2r-------2r--------|-
A|----2--2h-----2-4-2-|----2--2h-----------|- 
E|-0r-----------------|--------------4-5-6-|-

G|--------------------|--------------------|-
D|--------------------|--------------------|- 
A|-2r-------2r------2-|--------------4-2---|-
E|----2--2h-----2-3---|-5r-0r--0-5r------5-|-
I ain't got me nobody
I ain't carry no heavy load

G|--------------------|--------------------|- 
D|-2r-------2r--------|-2r-------2r--------|-
A|----2--2h-----2-4-2-|----2--2------2-4-2-|- 
E|--------------------|--------------------|-

Instrumental(1): 02:09 (Eric Clapton playing)  
G|--------------------|--------------------|- 
D|-2r-------2r--------|-2r-------2r--------|-
A|----2--2h-----2-4-2-|----2--2------------|- 
E|--------------------|--------------7-5-4-|-

G|--------------------|--------------------|- 
D|----------2r--------|-2r-------2r--4-2---|-
A|----2--2h-----2-3-4-|----2--2----------4-|- 
E|-0r-----------------|--------------------|-

G|--------------------|--------------------|-
D|--------------------|--------------------|- 
A|--------------------|--------------------|-
E|-5r-0r--0-5r--0-3-4-|-5r-0r--0-5r--7-5-4-|-

G|--------------------|--------------------|- 
D|----------2r--------|-2r-------2r--------|-
A|----2--2h-----2-4-2-|----2--2------------|- 
E|-0r-----------------|--------------4-5-6-|-

G|--------------------|--------------------|-
D|--------------------|--------------------|- 
A|-2r-------2r------2-|--------------4-2---|-
E|----2--2h-----2-3---|-5r-0r--0-5r------5-|-

G|--------------------|--------------------|- 
D|-2r-------2r--------|-2r-------2r--------|-
A|----2--2h-----2-4-2-|----2--2------2-4-2-|- 
E|--------------------|--------------------|-

Verse3: 02:46
G|--------------------|--------------------|- 
D|-2r-------2r--------|-2r-------2r--------|-
A|----2--2h-----2-4-2-|----2--2------------|- 
E|--------------------|--------------7-5-4-|-
If there ain't no change in the weather
Lord, there ain't no change in me

G|--------------------|--------------------|- 
D|----------2r--------|-2r-------2r--4-2---|-
A|----2--2h-----2-3-4-|----2--2----------4-|- 
E|-0r-----------------|--------------------|-

G|--------------------|--------------------|-
D|--------------------|--------------------|- 
A|--------------------|--------------------|-
E|-5r-0r--0-5r--4-5-7-|-5r-0r--0-5r--7-5-4-|-
If there ain't no change in the weather
Lord, there ain't no change in me

G|--------------------|--------------------|- 
D|----------2r--------|-2r-------2r--------|-
A|----2--2h-----2-4-2-|----2--2------------|- 
E|-0r-----------------|--------------4-5-6-|-

G|--------------------|--------------------|-
D|--------------------|--------------------|- 
A|-2r-------2r------2-|--------------4-2---|-
E|----2--2h-----2-3---|-5r-0r--0-5r------5-|-
I ain't hidin' from nobody
Ain't nobody hidin' from me

G|--------------------|--------------------|- 
D|-2r-------2r--------|-2r-------2r--------|-
A|----2--2h-----2-4-2-|----2--2------2-4-2-|- 
E|--------------------|--------------------|-

Verse4:03:24
G|--------------------|--------------------|- 
D|-2r-------2r--------|-2r-------2r--------|-
A|----2--2h-----2-4-2-|----2--2------------|- 
E|--------------------|--------------7-5-4-|-
Well, they call me the breeze
I keep rollin' down the road
G|--------------------|--------------------|- 
D|----------2r--------|-2r-------2r--4-2---|-
A|----2--2h-----2-3-4-|----2--2----------4-|- 
E|-0r-----------------|--------------------|-

G|--------------------|--------------------|-
D|--------------------|--------------------|- 
A|--------------------|--------------------|-
E|-5r-0r--0-5r--4-5-7-|-5r-0r--0-5r--7-5-4-|-
Yeah, they call me the breeze
I keep rollin' down the road

G|--------------------|--------------------|- 
D|----------2r--------|-2r-------2r--------|-
A|----2--2h-----2-4-2-|----2--2------------|- 
E|-0r-----------------|--------------4-5-6-|-

G|--------------------|--------------------|-
D|--------------------|--------------------|- 
A|-2r-------2r------2-|--------------4-2---|-
E|----2--2h-----2-3---|-5r-0r--0-5r------5-|-
I ain't got me nobody
I ain't carry no heavy load

G|--------------------|--------------------|- 
D|-2r-------2r--------|-2r-------2r--------|-
A|----2--2h-----2-4-2-|----2--2------2-4-2-|- 
E|--------------------|--------------------|-


Instrumental(2)/Outro: 04:01 (JJ Cale playing)
G|--------------------|--------------------|- 
D|-2r-------2r--------|-2r-------2r--------|-
A|----2--2h-----2-4-2-|----2--2------------|- 
E|--------------------|--------------7-5-4-|-

G|--------------------|--------------------|- 
D|----------2r--------|-2r-------2r--4-2---|-
A|----2--2h-----2-3-4-|----2--2----------4-|- 
E|-0r-----------------|--------------------|-

G|--------------------|--------------------|-
D|--------------------|--------------------|- 
A|--------------------|--------------------|-
E|-5r-0r--0-5r--4-5-7-|-5r-0r--0-5r--7-5-4-|-

G|--------------------|--------------------|- 
D|----------2r--------|-2r-------2r--------|-
A|----2--2h-----2-4-2-|----2--2------------|- 
E|-0r-----------------|--------------4-5-6-|-

G|--------------------|--------------------|-
D|--------------------|--------------------|- 
A|-2r-------2r------2-|--------------4-2---|-
E|----2--2h-----2-3---|-5r-0r--0-5r------5-|-

G|--------------------|--------------------|- 
D|--------------------|--------------------|-
A|--------------------|--------------------|- 
E|-0r---4--5--6--7----|-0r~~~~-------------|-

End: 05:05



--------------------------------------------------------------------------------
Tablature Legend ----------------  
| S  slap 
| P  pop 
| x  mute note
| .  full stop
| /  slide up 
| \  slide down
| h  hammer-on 
| p  pull-off 
| g  grace note 
| ~  vibrato 
| ^  brush up

            
            
Suggest correction
Creating personal tab
Creating personal tab
You can edit any tab online and save it as your Personal.

You can edit, replace or remove any tab part or add personal notes – all changes will be seen only by you.

Personal tabs can be accessed anytime from any device, even offline.
Learn more »
Give kudos to tab author, rate the tab!
1 2 3 4 5
comments
print report bad tab
3 comments total.
0 reply
Bruno Frenchy 4,768 Aug 19, 2015 05:58 AM

To view and play along the U-TUBE video of that song...
Just clic on the link bellow

https://youtu.be/hncnlbgr86Q

Enjoy,

Bruno Frenchy

0 reply
sheila scotty 16 Aug 19, 2015 10:49 AM

Video is very useful and tutorial, thanks... Though the internet URL link from your comment does not work from UG... Could be amended... But you just have to copy it and put it in YouTube search engine to reach the video...

0 reply
Bruno Frenchy 4,768 Aug 19, 2015 11:12 PM

Right, sorry for that but I can't do much about it... Good you've worked out a solution yourself... Thanks for your rating... Take care, Bruno

guest
You may want to rate the tab now too:
select rating
Wanna post a correction for this tab? Suggest correction