Oops, an error
Loading. Please wait.

Cocaine Bass Tab

version 1
version 1

Whole song

Interactive

24,448 views 75 this week
no commentswrite comment
1 2 3 4 5
accurate
x 5
add to favorites
launch autoscroll
font size
0
reset
guitar tuner
Autoscroll
slow
fast
+/-
esc
set tempo
stop
Help us to improve Ultimate-Guitar.com Take our survey!
×
Author
Eric Clapton
Cocaine


Riff 1

G|----------------------------------------|
A|----------------------------------------|
D|-7-7-5--7-5~----------------------------|
E|----------------------------------------|

Riff 2

G|------------------------------------------|
A|------------------------------------------|
D|-7~-5~-3~-(2)-----------------------------|
E|------------------------------------------|

You can also play this

G|----------------------------------------|
A|----------------------------------------|
D|-7-7-5--7-5~----------------------------|
E|--------------7-6-5---------------------|
Suggest correction
comments
print report bad tab
guest
You may want to rate the tab now too:
select rating
Wanna post a correction for this tab? Suggest correction