Oops, an error
Loading. Please wait.

Cocaine Tab

version 1
version 1

Whole song

Interactive

Video

223,746 views 315 this week
11 commentsread comments
1 2 3 4 5
worth learning
x 14
add to favorites
launch autoscroll
font size
0
reset
how to read this tab
guitar tuner
Autoscroll
slow
fast
+/-
esc
set tempo
stop
Help us to improve Ultimate-Guitar.com Take our survey!
×
Author
My good buddy Matt tabbed this out and submitted it for me because he is an
amazing guitarist

everyone else who tabbed this did a terrible job and left out the solo so i
took it upon myself to do this right.... the solo isnt perfect but its a start
and you can figure it out urself from what i have so far

[Intro/Verses]

e|----------|
B|----------|
G|99-7-9---7|
D|99-7-9---7|
A|77-5-7---5|
E|----------|


[Chorus]

e|-------|
B|-------|
G|9-7-5-4|
D|9-7-5-4|
A|7-5-3-2|
E|-------|


[Solo]

e|---------------------------------------------|
B|---------------------------------------------|
G|9-9----9--12b-12-9----9-9-----9-9-12v-12v-9v-|
D|----12-------------12-----12-----------------|
A|---------------------------------------------|
E|---------------------------------------------|

e|------------------------------------------------------12----|
B|10b-10b-10b-9b-9b-9b-9b-10br-8-------------------12br---12br|
G|-------------------------------9--------9-9-----------------|
D|---------------------------------12--12-----12v-------------|
A|------------------------------------------------------------|
E|------------------------------------------------------------|

e|-----------------------------------------------------------------------|
B|9--------------------------12-10-9-------------------------------------|
G|-11-9----9-9-----9-----------------11-9-12-9------9---------9---------9|
D|------12------12---12-12--------------------12-12--12-12-12---9h12-12--|
A|-----------------------------------------------------------------------|
E|-----------------------------------------------------------------------|

            It gets hard to follow at this point but do your best
e|----------------------------12----12----12---12----------------12-9--|
B|-------------10br-8---8-12br--12br--12br--12b--12r-12-10-8---------12|
G|---9-9-9------------9-------------------------------------11-9-------|
D|12-------12----------------------------------------------------------|
A|---------------------------------------------------------------------|
E|---------------------------------------------------------------------|
                             
from here its tough to interpret so throw in some
 similar licks and it will sound fine
e|-----------------------------------------------------------------------|
B|10-8-------------------------------------------------------------------|
G|-----11-9----9-11----9-11----------------------------------------------|
D|----------12------12------12-------------------------------------------|
A|-----------------------------------------------------------------------|
E|-----------------------------------------------------------------------|


[Outro]

e|------------------------------------------------------------|
B|--------------------------11b-11b-11-11b-8------------------|
G|9br----9----9------------------------------9-9b-9b-9b--9b-9b|
D|----12---12---12-12-12-10-----------------------------------|
A|------------------------------------------------------------|
E|------------------------------------------------------------|

 finish using some of these licks
e|---------|----------------------|
B|---------|----------------------|
G|9h11-9h11|--------9----9-9-9----|
D|---------|9h12-12---12-------12-|
A|---------|----------------------|
E|---------|----------------------|



************************************

| h   Hammer-on
| r   Release
| b   Bend
| br  Bend release
| v   Vibrato

************************************
Suggest correction
comments
print report bad tab
11 comments total. Showing first comments.
+2 reply
eazyrider 10 wrote on February 2 2005, 12:00 am

ur buddy is a dumass this tabd is weak

-2 reply
Tumut 10 wrote on February 22 2005, 12:00 am

nah dude this this is a grouse tab thank ya buddy for me n keep fightin the good fite

+1 reply
Waterlandca 90 wrote on July 20 2005, 12:00 am

Theres two guitars in the solo.

guest
You may want to rate the tab now too:
select rating
Please do not post tabs as comments. Select "correction" instead!