Oops, an error
Loading. Please wait.

Eyesight To The Blind Tab

version 2
version 2

Whole song

3,168 views 9 this week
3 commentsread comments
1 2 3 4 5
please rate
add to favorites
launch autoscroll
font size
0
reset
how to read this tab
guitar tuner
Autoscroll
slow
fast
+/-
esc
set tempo
stop
Help us to improve Ultimate-Guitar.com Take our survey!
×
Author
the movie version of "Eyesight to the Blind"
by The Who with Eric Clapton

SYMBOL KEY:
h = hammer on
p = pull off
/ = slide up
\ = slide down


MAIN RIFF:

    1 . . . 2 . . . 3 . . . 4 . . .
E|----------------------------------|
B|----------------------------------|
G|*--------------------------------*|
D|*h7-----7-----------------------5*|
A|----------0-----------0h3h5/7-----|
E|----------------------------------|

/---------------------------------------------------------------------------\
|note: the hammer on in the beginning is from the fifth to the to the       |
|      seventh fret. so, just to be clear, hammer on from the fifth at the  |
|      end of the riff to the seventh when repeating.                       |
\---------------------------------------------------------------------------/


TRANSITION RIFF:

    1 . . . 2 . . . 3 . . . 4 . . .
E|----------------------------------|
B|----------------------------------|
G|----------------------------------|
D|-h7-----7---------------------7---|
A|----------0-----------0h3h5/7-----|
E|----------------------------------|


FILL RIFF:

    1 . . . 2 . . . 3 . . . 4 . . .   1 . . . 2 . . . 3 . . . 4 . . .
E|----------------------------------|---------------------------------|
B|----------------------------------|-----------5h7-------7--\5---3---|
G|------------7/9-------7--\5---7---|5h7------------------------------|
D|-5--------------------------------|---------------------------------|
A|----------------------------------|---------------------------------|
E|----------------------------------|---------------------------------|

    1 . . . 2 . . . 3 . . . 4 . . .   1 . . . 2 . . . 3 . . . 4 . . .
E|----------------------------------|---------------------------------|
B|-3h5------------------------------|---------------------------------|
G|----------------------------------|---------------------------------|
D|----------------------------------|-------------------------------5-|
A|----------------------------------|---------------------0h3h5/7-----|
E|----------------------------------|---------------------------------|

/---------------------------------------------------------------------------\
|note: this is not the exact FILL RIFF. when listening to the track, i      |
|      could not discern any of the playing, so i came up with this. it is  |
|      somewhat similar, however not the real riff, and fits in very well   |
|      with whatever else is going on at the time. you want the real thing, |
|      do it yourself.                                                      |
\---------------------------------------------------------------------------/


CHORDS:

    Am [MAIN RIFF]
you talk about your woman,   i wish you could see mine
    G                      D                      Am   [TRANSITION RIFF]
you talk about your woman,   i wish you could see mine
      G [FILL RIFF]            D                            E     Am
every time she starts to love,   she brings eyesight to the blind

you know her daddy gave her magic, i can tell by the way she walks
you know her daddy gave her magic, i can tell by the way she walks
every time she starts to shake, the dumb begin to talk

she's got the power to heal you, never fear
she has got the power to heal you, never fear
just one word from her lips and the deaf can hear

she's got the power to heal you, never fear
she has got the power to heal you, never fear
just one word from her lips and the deaf can hear


tabbed by: niuguitarman
so there's the jist of it. i hadn't seen any other decent tabs for this version of the 
so i did one myself. if you have any questions, comments, or concerns, contact 
at "mjcp_2006@yahoo.com"
if you have any beef with this tab, just throw it in the comments. i really DO read 
just try not to call me an idiot. i don't like it when people put other people down.
Suggest correction
What's this?
You can suggest a correction to this tab. Community and Mods will review your correction and vote to approve or reject it.
comments
We did not receive enough feedback on this tab! Please rate:
print report bad tab
1 2 3 4 5
3 comments total.
0 reply
niuguitarman 464 wrote on April 24 2007, 04:58 pm

okay so... i noticed this right after i uploaded this tab. the FILL RIFF should actually go like this:

1 . . . 2 . . . 3 . . . 4 . . . 1 . . . .
E|----------------------------------|------------
B|----------------------------------|------------
G|------------7/9-------7--\5---7---|-5h7--------
D|-5--------------------------------|------------
A|----------------------------------|------------
E|----------------------------------|------------

the rest of the FILL RIFF is correct, but the first half needed revision anyhoo... i just wanted to put this on here before i get called a dumbass.

0 reply
niuguitarman 464 wrote on April 24 2007, 05:00 pm

okay... so the spacing on the timing was wrong. i don't know how that happened. i guess the extra spaces didn't register. anyway... i fixed it... hopefully.

___1 . . . 2 . . . 3 . . . 4 . . ._____1 . . . .
E|----------------------------------|------------
B|----------------------------------|------------
G|------------7/9-------7--\5---7---|-5h7--------
D|-5--------------------------------|------------
A|----------------------------------|------------
E|----------------------------------|------------

0 reply
niuguitarman 464 wrote on April 24 2007, 05:00 pm

yeah... it worked

guest
You may want to rate the tab now too:
select rating
Please do not post tabs as comments. Select "correction" instead!