Oops, an error
Loading. Please wait.

Hey Hey Tab

version 2
version 2
107,971 views 207 this week
9 commentsread comments
1 2 3 4 5
x 46
add to favorites
launch autoscroll
font size
0
reset
how to read this tab
guitar tuner
×
Best way to learn
"Hey Hey"
Autoscroll
slow
fast
+/-
esc
set tempo
stop
Author
Date: 19.02.2004
Tabbed by Peter Tuyp (peter.tuyp@wxs.nl)

Eric Clapton - Hey Hey (unplugged)

The trick of this song is to maintain a strickt bass tempo and play the rest of
the notes around it. I tried to visualise that by keeping the same distance
between the bass notes and placing the other notes on top of it and in between.

Notice the 'streched' slide '2///7' and '0' below the '7'. The idea is to slide
in such a tempo that you arive at the 7-th postion just in time to play the next
bass note (0 on the low E)on top of it.


e|--------------------9---9---------------------------9---9-----------|
B|----------8---------8---8---8-------------8---------8---8---8-------|
G|--------------9---------------9---------------9---------------9-----|
D|--------------------------------------------------------------------|
A|--2///7---------------------------2///7-----------------------------|
E|------0---0---0---0---0---0---0-------0---0---0---0---0---0---0-----|

e|----------3-0-2-0---3---3---0-2-0-------------------9---9-----------|
B|--------2-----------0---0-----------------8---------8---8---8-------|
G|----------------------------------------------9---------------9-----|
D|--------------------------------------------------------------------|
A|--7\2-0---0---0---0---0---0---0---2///7-----------------------------|
E|--------------------------------------0---0---0---0---0---0---0-----|

e|----------5---7-5----------3p2p0-2-0---------0h3---2--2p0--0-----0--|
B|--------4---4------------2-------------------0---0---0---2-------0--|
G|---------------------------------------0h1p0------------------h1----|
D|--7\3-4---4---4---4\2-2---------------------------------------h2----|
A|-------------------------------------------------------------0h2----|
E|-----------------------------------------------------------0--------|

e|--------------------9---9---------------------------9---9-----------|
B|----------8---------8---8---8-------------8---------8---8---8-------|
G|--------------9---------------9---------------9---------------9-----|
D|--------------------------------------------------------------------|
A|--2///7---------------------------2///7-----------------------------|
E|------0---0---0---0---0---0---0-------0---0---0---0---0---0---0-----|

e|----------3-0-2-0---3---3---0-2-0-------------------9---9-----------|
B|--------2-----------0---0-----------------8---------8---8---8-------|
G|----------------------------------------------9---------------9-----|
D|--------------------------------------------------------------------|
A|--7\2-0---0---0---0---0---0---0---2///7-----------------------------|
E|--------------------------------------0---0---0---0---0---0---0-----|

e|----------5---7-5----------3p2p0-2-0---------0h3---2--2p0--0-----0--|
B|--------4---4------------2-------------------0---0---0---2-------0--|
G|---------------------------------------0h1p0------------------h1----|
D|--7\3-4---4---4---4\2-2---------------------------------------h2----|
A|-------------------------------------------------------------0h2----|
E|-----------------------------------------------------------0--------|

e|-------0---0---0---0---0---0---0---0-0---0-0-0-----0---0---0-0-0----|
B|-------0---0---0---0---0---0---0---0-3---3-3-3-----3---3---3-3-0----|
G|-------1---1---1---1---1---1---1---1-1---1-1-1-----1---1---1-1------|
D|--------------------------------------------------------------------|
A|-2------------------------------------------------------------------|
E|-----0---0---0---0---0---0---0---0---0---0---0---0---0---0---0------|
          Hey hey        Hey hey baby hey

e|-----------3---------------3---------0---0-0-0-0---0---0---0-0-0----|
B|-------2---2---2---2---2---2---2---2-3---3-3-3-3---3---3---3-3-0----|
G|-------0-------0---0---0-------0---0-1---1-1-1-1---1---1---1-1------|
D|--------------------------------------------------------------------|
A|-7\2-0---0---0---0---0---0---0---0----------------------------------|
E|-------------------------------------0---0---0---0---0---0---0---0--|
           Hey hey       hey hey baby hey


e|-------5---------------3--------------------------------------------|
B|---4---4---4---4---2---2---2---2------------------------------------|
G|---4-------4---4---2-------2---2------------------------------------|
D|-4---4---4---4---2---2---2---2--------------------------------------|
A|--------------------------------------------------------------------|
E|--------------------------------------------------------------------|
  I love you baby, I shure ain't gonna be your dog


e|---------0h3---2--2p0--0-----0--|
B|---------0---0---0---2-------0--|
G|--0h1p0-------------------h1----|
D|--------------------------h2----|
A|-------------------------0h2----|
E|-----------------------0--------|

e|--------------------9---9---------------------------9---9-----------|
B|----------8---------8---8---8-------------8---------8---8---8-------|
G|--------------9---------------9---------------9---------------9-----|
D|--------------------------------------------------------------------|
A|--2///7---------------------------2///7-----------------------------|
E|------0---0---0---0---0---0---0-------0---0---0---0---0---0---0-----|

e|----------3-0-2-0---3---3---0-2-0-------------------9---9-----------|
B|--------2-----------0---0-----------------8---------8---8---8-------|
G|----------------------------------------------9---------------9-----|
D|--------------------------------------------------------------------|
A|--7\2-0---0---0---0---0---0---0---2///7-----------------------------|
E|--------------------------------------0---0---0---0---0---0---0-----|

e|----------5---7-5----------3p2p0-2-0---------0h3---2--2p0--0-----0--|
B|--------4---4------------2-------------------0---0---0---2-------0--|
G|---------------------------------------0h1p0------------------h1----|
D|--7\3-4---4---4---4\2-2---------------------------------------h2----|
A|-------------------------------------------------------------0h2----|
E|-----------------------------------------------------------0--------|

e|-------0---0---0---0---0---0---0---0-0---0-0-0-----0---0---0-0-0----|
B|-------0---0---0---0---0---0---0---0-3---3-3-3-----3---3---3-3-0----|
G|-------1---1---1---1---1---1---1---1-1---1-1-1-----1---1---1-1------|
D|--------------------------------------------------------------------|
A|-2------------------------------------------------------------------|
E|-----0---0---0---0---0---0---0---0---0---0---0---0---0---0---0------|
          Hey hey        Hey hey baby hey


e|-----------3---------------3---------0---0-0-0-0---0---0---0-0-0----|
B|-------2---2---2---2---2---2---2---2-3---3-3-3-3---3---3---3-3-0----|
G|-------0-------0---0---0-------0---0-1---1-1-1-1---1---1---1-1------|
D|--------------------------------------------------------------------|
A|-7\2-0---0---0---0---0---0---0---0----------------------------------|
E|-------------------------------------0---0---0---0---0---0---0---0--|
           Hey hey       Hey hey baby hey


e|-------5---------------3--------------------------------------------|
B|---4---4---4---4---2---2---2---2------------------------------------|
G|---4-------4---4---2-------2---2------------------------------------|
D|-4---4---4---4---2---2---2---2--------------------------------------|
A|--------------------------------------------------------------------|
E|--------------------------------------------------------------------|
  My arms around you baby cos all I can say is hey

e|---------0h3---2--2p0--0-----0--|
B|---------0---0---0---2-------0--|
G|--0h1p0-------------------h1----|
D|--------------------------h2----|
A|-------------------------0h2----|
E|-----------------------0--------|

e|--------------------9---9---------------------------9---9-----------|
B|----------8---------8---8---8-------------8---------8---8---8-------|
G|--------------9---------------9---------------9---------------9-----|
D|--------------------------------------------------------------------|
A|--2///7---------------------------2///7-----------------------------|
E|------0---0---0---0---0---0---0-------0---0---0---0---0---0---0-----|

e|----------3-0-2-0---3---3---0-2-0-------------------9---9-----------|
B|--------2-----------0---0-----------------8---------8---8---8-------|
G|----------------------------------------------9---------------9-----|
D|--------------------------------------------------------------------|
A|--7\2-0---0---0---0---0---0---0---2///7-----------------------------|
E|--------------------------------------0---0---0---0---0---0---0-----|

e|----------5---7-5----------3p2p0-2-0---------0h3---2--2p0--0-----0--|
B|--------4---4------------2-------------------0---0---0---2-------0--|
G|---------------------------------------0h1p0------------------h1----|
D|--7\3-4---4---4---4\2-2---------------------------------------h2----|
A|-------------------------------------------------------------0h2----|
E|-----------------------------------------------------------0--------|

e|-------0---0---0---0---0---0---0---0-0---0-0-0-----0---0---0-0-0----|
B|-------0---0---0---0---0---0---0---0-3---3-3-3-----3---3---3-3-0----|
G|-------1---1---1---1---1---1---1---1-1---1-1-1-----1---1---1-1------|
D|--------------------------------------------------------------------|
A|-2------------------------------------------------------------------|
E|-----0---0---0---0---0---0---0---0---0---0---0---0---0---0---0------|
          Hey hey        Hey hey baby hey


e|-----------3---------------3---------0---0-0-0-0---0---0---0-0-0----|
B|-------2---2---2---2---2---2---2---2-3---3-3-3-3---3---3---3-3-0----|
G|-------0-------0---0---0-------0---0-1---1-1-1-1---1---1---1-1------|
D|--------------------------------------------------------------------|
A|-7\2-0---0---0---0---0---0---0---0----------------------------------|
E|-------------------------------------0---0---0---0---0---0---0---0--|
           Hey hey       Hey hey baby hey


e|-------5---------------3--------------------------------------------|
B|---4---4---4---4---2---2---2---2------------------------------------|
G|---4-------4---4---2-------2---2------------------------------------|
D|-4---4---4---4---2---2---2---2--------------------------------------|
A|--------------------------------------------------------------------|
E|--------------------------------------------------------------------|
  Love you baby, but I shure ain't gonna be your dog

e|---------0h3---2--2p0--0-----0--|
B|---------0---0---0---2-------0--|
G|--0h1p0-------------------h1----|
D|--------------------------h2----|
A|-------------------------0h2----|
E|-----------------------0--------|


e|--------------------9---9---------------------------9---9-----------|
B|----------8---------8---8---8-------------8---------8---8---8-------|
G|--------------9---------------9---------------9---------------9-----|
D|--------------------------------------------------------------------|
A|--2///7---------------------------2///7-----------------------------|
E|------0---0---0---0---0---0---0-------0---0---0---0---0---0---0-----|

e|----------3-0-2-0---3---3---0-2-0-------------------9---9-----------|
B|--------2-----------0---0-----------------8---------8---8---8-------|
G|----------------------------------------------9---------------9-----|
D|--------------------------------------------------------------------|
A|--7\2-0---0---0---0---0---0---0---2///7-----------------------------|
E|--------------------------------------0---0---0---0---0---0---0-----|

e|----------5---7-5----------3p2p0-2-0---------0h3---2--2p0--0-----0--|
B|--------4---4------------2-------------------0---0---0---2-------0--|
G|---------------------------------------0h1p0------------------h1----|
D|--7\3-4---4---4---4\2-2---------------------------------------h2----|
A|-------------------------------------------------------------0h2----|
E|-----------------------------------------------------------0--------|

e|-------0---0---0---0---0---0---0---0-0---0-0-0-----0---0---0-0-0----|
B|-------0---0---0---0---0---0---0---0-3---3-3-3-----3---3---3-3-0----|
G|-------1---1---1---1---1---1---1---1-1---1-1-1-----1---1---1-1------|
D|--------------------------------------------------------------------|
A|-2------------------------------------------------------------------|
E|-----0---0---0---0---0---0---0---0---0---0---0---0---0---0---0------|
          Hey hey lost your good thing now


e|-----------3---------------3---------0---0-0-0-0---0---0---0-0-0----|
B|-------2---2---2---2---2---2---2---2-3---3-3-3-3---3---3---3-3-0----|
G|-------0-------0---0---0-------0---0-1---1-1-1-1---1---1---1-1------|
D|--------------------------------------------------------------------|
A|-7\2-0---0---0---0---0---0---0---0----------------------------------|
E|-------------------------------------0---0---0---0---0---0---0---0--|
           Hey hey you lost your good thing now


e|-------5---------------3--------------------------------------------|
B|---4---4---4---4---2---2---2---2------------------------------------|
G|---4-------4---4---2-------2---2------------------------------------|
D|-4---4---4---4---2---2---2---2--------------------------------------|
A|--------------------------------------------------------------------|
E|--------------------------------------------------------------------|
  You had me fooled, I found it out somehow


e|---------0h3---2--2p0--0-----0--|
B|---------0---0---0---2-------0--|
G|--0h1p0-------------------h1----|
D|--------------------------h2----|
A|-------------------------0h2----|
E|-----------------------0--------|

e|--------------------9---9---------------------------9---9-----------|
B|----------8---------8---8---8-------------8---------8---8---8-------|
G|--------------9---------------9---------------9---------------9-----|
D|--------------------------------------------------------------------|
A|--2///7---------------------------2///7-----------------------------|
E|------0---0---0---0---0---0---0-------0---0---0---0---0---0---0-----|

e|----------3-0-2-0---3---3---0-2-0-------------------9---9-----------|
B|--------2-----------0---0-----------------8---------8---8---8-------|
G|----------------------------------------------9---------------9-----|
D|--------------------------------------------------------------------|
A|--7\2-0---0---0---0---0---0---0---2///7-----------------------------|
E|--------------------------------------0---0---0---0---0---0---0-----|

e|----------5---7-5----------3p2p0-2-0---------0h3---2--2p0--0-----0-0-|
B|--------4---4------------2-------------------0---0---0---2-------0-0-|
G|---------------------------------------0h1p0------------------h1-----|
D|--7\3-4---4---4---4\2-2---------------------------------------h2-----|
A|-------------------------------------------------------------0h2-----|
E|-----------------------------------------------------------0---------|

e|-------------|
B|--2-0-2---3--|
G|--1-1-1---1--|
D|--2---2---2--|
A|-------------|
E|-------------|



************************************

| h  Hammer-on
| p  Pull-off
| /  Slide up
| \  Slide down

************************************
Suggest correction
comments
print report bad tab
9 comments total. Showing first comments.
0 reply
sperley 15 Jul 26, 2004 08:00 PM

awesome job dude

0 reply
man-overboard 85 Mar 11, 2006 04:13 AM

spot on mate, great tab for a great song. 5 Stars

0 reply
Mr.Bertelsen 31 Jul 02, 2006 11:56 AM

awesome!!

guest
You may want to rate the tab now too:
select rating
Wanna post a correction for this tab? Suggest correction