Oops, an error
Loading. Please wait.

I Shot The Sheriff Bass Tab

version 1
version 1

Whole song

Interactive

21,216 views 87 this week
no commentswrite comment
1 2 3 4 5
x 7
add to favorites
launch autoscroll
font size
0
reset
guitar tuner
Autoscroll
slow
fast
+/-
esc
set tempo
stop
Help us to improve Ultimate-Guitar.com Take our survey!
×
Band/Artist: Eric Clapton
Song: I Shot The Sheriff 


     E  E  E  S S H           E  E  S S S S Q    S  S  E   
G|------------------------|------------------------------|
D|------------------------|------------------------------|
A|------------------------|--3-------3-3--------1h-3p-1--|
E|--3--------3-3----------|------------------------------|


    E  S S E  E  H           E  S S E  E  H           E  S S E  E  H         
G|------------------------|------------------------|------------------------|
D|------------------------|------------------------|------------------------|
A|------------------------|------------------------|------------------------|
E|--3----3----3-----------|--3--3-3----3-----------|--3----3----3-----------|


    Q.     S S H           E.  S E  S S H           E  S S S S E  Q    E  S  S  
G|----------------------|------------------------|-----------------------------|
D|----------------------|------------------------|-----------------------------|
A|--3------3-3----------|------------------------|-----------------------------|
E|----------------------|--3---3----3-3----------|--3--3-3---3-3----------6h-8-|


    H        H           E  E  S S E  Q    S S E     H        Q    S S E   
G|--------------------|---------------------------|-----------------------|
D|--------------------|---------------------------|-----------------------|
A|--6--------5--------|----------------------x-5--|--6--------5-----------|
E|--------------------|--3-------3----------------|------------------x-1--|


    E  S S S S E  Q    S S E     H        H           E  E  S S E  Q    E  E   
G|----------------------------|--------------------|--------------------------|
D|----------------------------|--------------------|--------------------------|
A|-----------------------x-5--|--6--------5--------|-----------------------5--|
E|--3----3---x-3--------------|--------------------|--3-------3---------6-----|


    H        Q    Q       E  E  E  E  S S E  Q       E  E  E  S S E  E  Q     
G|---------------------|--------------------------|--------------------------|
D|---------------------|--------------------------|--------------------------|
A|--6--------5---------|--------------------------|---------------5----------|
E|---------------------|--3--------3----3---------|--3----------3------------|


    E  E  Q    E  E  Q       E.  E.  E.  E.  E  E     E.  E.  E   
G|------------------------|------------------------|-------------|
D|------------------------|--5---3-----------------|-------------|
A|------------------------|----------5---3---1--5--|--3---1------|
E|--3----------3----------|------------------------|----------3--|


    W                   E  E  E  S S H           E  E  S S S S Q    S  S  E   
G|-------------------|------------------------|------------------------------|
D|-------------------|------------------------|------------------------------|
A|-------------------|------------------------|--3-------3-3--------1h-3p-1--|
E|--L----------------|--3--------3-3----------|------------------------------|


    E  S S E  E  H           E  S S E  E  H           E  S S E  E  H         
G|------------------------|------------------------|------------------------|
D|------------------------|------------------------|------------------------|
A|------------------------|------------------------|------------------------|
E|--3----3----3-----------|--3--3-3----3-----------|--3----3----3-----------|


    Q.     S S H           E.  S E  S S H           E  S S S S E  Q    E  S  S  
G|----------------------|------------------------|-----------------------------|
D|----------------------|------------------------|-----------------------------|
A|--3------3-3----------|------------------------|-----------------------------|
E|----------------------|--3---3----3-3----------|--3--3-3---3-3----------6h-8-|


    H        H           E  E  S S E  Q    S S E     H        Q    S S E   
G|--------------------|---------------------------|-----------------------|
D|--------------------|---------------------------|-----------------------|
A|--6--------5--------|----------------------x-5--|--6--------5-----------|
E|--------------------|--3-------3----------------|------------------x-1--|


    E  S S S S E  Q    S S E     H        H           E  E  S S E  Q    E  E   
G|----------------------------|--------------------|--------------------------|
D|----------------------------|--------------------|--------------------------|
A|-----------------------x-5--|--6--------5--------|-----------------------5--|
E|--3----3---x-3--------------|--------------------|--3-------3---------6-----|


    H        Q    Q       E  E  E  E  S S E  Q       E  E  E  S S E  E  Q     
G|---------------------|--------------------------|--------------------------|
D|---------------------|--------------------------|--------------------------|
A|--6--------5---------|--------------------------|---------------5----------|
E|---------------------|--3--------3----3---------|--3----------3------------|


    E  E  Q    E  E  Q       E.  E.  E.  E.  E  E     E.  E.  E   
G|------------------------|------------------------|-------------|
D|------------------------|--5---3-----------------|-------------|
A|------------------------|----------5---3---1--5--|--3---1------|
E|--3----------3----------|------------------------|----------3--|


    W                   E  E  E  S S H           E  E  S S S S Q    S  S  E   
G|-------------------|------------------------|------------------------------|
D|-------------------|------------------------|------------------------------|
A|-------------------|------------------------|--3-------3-3--------1h-3p-1--|
E|--L----------------|--3--------3-3----------|------------------------------|


    E  S S E  E  H           E  S S E  E  H           E  S S E  E  H         
G|------------------------|------------------------|------------------------|
D|------------------------|------------------------|------------------------|
A|------------------------|------------------------|------------------------|
E|--3----3----3-----------|--3--3-3----3-----------|--3----3----3-----------|


    Q.     S S H           E.  S E  S S H           E  S S S S E  Q    E  S  S  
G|----------------------|------------------------|-----------------------------|
D|----------------------|------------------------|-----------------------------|
A|--3------3-3----------|------------------------|-----------------------------|
E|----------------------|--3---3----3-3----------|--3--3-3---3-3----------6h-8-|


    H        H           E  E  S S E  Q    S S E     H        Q    S S E   
G|--------------------|---------------------------|-----------------------|
D|--------------------|---------------------------|-----------------------|
A|--6--------5--------|----------------------x-5--|--6--------5-----------|
E|--------------------|--3-------3----------------|------------------x-1--|


    E  S S S S E  Q    S S E     H        H           E  E  S S E  Q    E  E   
G|----------------------------|--------------------|--------------------------|
D|----------------------------|--------------------|--------------------------|
A|-----------------------x-5--|--6--------5--------|-----------------------5--|
E|--3----3---x-3--------------|--------------------|--3-------3---------6-----|


    H        Q    Q       E  E  E  E  S S E  Q       E  E  E  S S E  E  Q     
G|---------------------|--------------------------|--------------------------|
D|---------------------|--------------------------|--------------------------|
A|--6--------5---------|--------------------------|---------------5----------|
E|---------------------|--3--------3----3---------|--3----------3------------|


    E  E  Q    E  E  Q       E.  E.  E.  E.  E  E     E.  E.  E  H         
G|------------------------|------------------------|----------------------|
D|------------------------|--5---3-----------------|----------------------|
A|------------------------|----------5---3---1--5--|--3---1---------------|
E|--3----------3----------|------------------------|----------3--L--------|


    W                   H        Q    E     E  E  E  S S H         
G|-------------------|-------------------|------------------------|
D|-------------------|-------------------|------------------------|
A|-------------------|-------------------|------------------------|
E|--L----------------|--L--------L----L--|--3--------3-3----------|


    E  E  S S S S Q    S  S  E     E  S S E  E  H         
G|------------------------------|------------------------|
D|------------------------------|------------------------|
A|--3-------3-3--------1h-3p-1--|------------------------|
E|------------------------------|--3----3----3-----------|


    E  S S E  E  H           E  S S E  E  H           Q.     S S H         
G|------------------------|------------------------|----------------------|
D|------------------------|------------------------|----------------------|
A|------------------------|------------------------|--3------3-3----------|
E|--3--3-3----3-----------|--3----3----3-----------|----------------------|


    E.  S E  S S H           E  S S S S E  Q    E  S  S    H        H         
G|------------------------|-----------------------------|--------------------|
D|------------------------|-----------------------------|--------------------|
A|------------------------|-----------------------------|--6--------5--------|
E|--3---3----3-3----------|--3--3-3---3-3----------6h-8-|--------------------|


    E  E  S S E  Q    S S E     H        Q    S S E   
G|---------------------------|-----------------------|
D|---------------------------|-----------------------|
A|----------------------x-5--|--6--------5-----------|
E|--3-------3----------------|------------------x-1--|


    E  S S S S E  Q    S S E     H        H           E  E  S S E  Q    E  E   
G|----------------------------|--------------------|--------------------------|
D|----------------------------|--------------------|--------------------------|
A|-----------------------x-5--|--6--------5--------|-----------------------5--|
E|--3----3---x-3--------------|--------------------|--3-------3---------6-----|


    H        Q    Q       E  E  E  E  S S E  Q       E  E  E  S S E  E  Q     
G|---------------------|--------------------------|--------------------------|
D|---------------------|--------------------------|--------------------------|
A|--6--------5---------|--------------------------|---------------5----------|
E|---------------------|--3--------3----3---------|--3----------3------------|


    E  E  Q    E  E  Q       E.  E.  E.  E.  E  E     E.  E.  E   
G|------------------------|------------------------|-------------|
D|------------------------|--5---3-----------------|-------------|
A|------------------------|----------5---3---1--5--|--3---1------|
E|--3----------3----------|------------------------|----------3--|


    W                   E  E  E  S S H           E  E  S S S S Q    S  S  E   
G|-------------------|------------------------|------------------------------|
D|-------------------|------------------------|------------------------------|
A|-------------------|------------------------|--3-------3-3--------1h-3p-1--|
E|--L----------------|--3--------3-3----------|------------------------------|


    E  S S E  E  H           E  S S E  E  H           E  S S E  E  H         
G|------------------------|------------------------|------------------------|
D|------------------------|------------------------|------------------------|
A|------------------------|------------------------|------------------------|
E|--3----3----3-----------|--3--3-3----3-----------|--3----3----3-----------|


    Q.     S S H           E.  S E  S S H           E  S S S S E  Q    E  S  S  
G|----------------------|------------------------|-----------------------------|
D|----------------------|------------------------|-----------------------------|
A|--3------3-3----------|------------------------|-----------------------------|
E|----------------------|--3---3----3-3----------|--3--3-3---3-3----------6h-8-|


    H        H           E  E  S S E  Q    S S E     H        Q    S S E   
G|--------------------|---------------------------|-----------------------|
D|--------------------|---------------------------|-----------------------|
A|--6--------5--------|----------------------x-5--|--6--------5-----------|
E|--------------------|--3-------3----------------|------------------x-1--|


    E  S S S S E  Q    S S E     H        H           E  E  S S E  Q    E  E   
G|----------------------------|--------------------|--------------------------|
D|----------------------------|--------------------|--------------------------|
A|-----------------------x-5--|--6--------5--------|-----------------------5--|
E|--3----3---x-3--------------|--------------------|--3-------3---------6-----|


    H        Q    Q       E  E  E  E  S S E  Q       E  E  E  S S E  E  Q     
G|---------------------|--------------------------|--------------------------|
D|---------------------|--------------------------|--------------------------|
A|--6--------5---------|--------------------------|---------------5----------|
E|---------------------|--3--------3----3---------|--3----------3------------|


    E  E  Q    E  E  Q       H        H           E  S S E  E  E  E  S S E    
G|------------------------|--------------------|----------------------------||
D|------------------------|--------------------|----------------------------||
A|------------------------|--6--------5--------|----------------------------||
E|--3----------3----------|--------------------|--3----3----3-----3--1-3----||


Duration Legend
---------------
W - whole
H - half
Q - quarter
E - 8th
S - 16th
T - 32nd
X - 64th
. - note dotted
|-n-|  - n-tuplets

************************************

| h  Hammer-on
| p  Pull-off
| x  Dead note 

************************************
Suggest correction
comments
print report bad tab
guest
You may want to rate the tab now too:
select rating
Wanna post a correction for this tab? Suggest correction