Oops, an error
Loading. Please wait.

If I Had Possession Over Judgement Day tab

version 1
version 1

Whole song

Interactive

10,566 views 9 this week
5 commentsread comments
1 2 3 4 5
x 3
add to favorites
×
Save as Personal and add changes to this tab that will be seen only by you. Learn more ›
×
You can save this tab as Personal to edit and correct it or add notes. All changes will be seen only by you. Learn more »
launch autoscroll
font size
0
reset
how to read this tab
guitar tuner
edit
Autoscroll
slow
fast
+/-
esc
set tempo
stop
Author
If I Had Possession Over Judgement Day
Eric Clapton version

This is a very cool slide song. Very easy, but for some reason it was kind of hard
to figure out, mostly because of the weird amount of beats in a measure. I tabbed
this song out mainly because a member of UG requested it, so here it is.


Gtr. I (E A D G B e) - 'Eric Clapton - Electric Slide Guitar'
9 beats in every measure
Each ' or " is 1 beat

Riffs-

    '     "    '   "   '     "    '  "   '
||------------------------------------------||
||------------------------------------------||
||--/12-12--12-12---0-/12-0-/10---0---------||
||----------------------------------12\--5--||
||------------------------------------------||
||------------------------------------------||
Riff A

     '     "   '    "   '     "   ' "  '
||------------------------------------------||
||------------------------------------------||
||-0-/3--0---0-/3-0---0-/3--0---0-/3--0-0-0-||
||---------/3-----------------/3------------||
||------------------------------------------||
||------------------------------------------||
Riff B

   '    "    '    "  '   "        '    "  '
||-------------------------------------------||
||-------------------------------------------||
||-/7-------------7\5-5-----------/3-0-/3-0--||
||-------------------------------------------||
||-------------------------------------------||
||-------------------------------------------||
Riff C


||-------------------------------------------||
||-------------------------------------------||
||--12-10--7-10--7-5--7-5-3--5--0--(0)-------||
||-------------------------------------------||
||-------------------------------------------||
||-------------------------------------------||
End Riff

Those are the riffs of the song, which you need to know. Here is the actually song,
and the order in which you play the above.

||-------||
||-------||
||-0--0--||
||-------||
||-------||
||-------||
First 2 notes...

INTRO
Riff A
Riff B
Riff A
Riff B
Riff C

VERSES
(same thing as intro)
Riff A
If I had possession over judgement day,
Riff B
Riff A
If I had possession over judgement day,
Riff B
Riff C
Lord, the little woman I'm lovin' wouldn't, have no right to pray
Riff B

HARMONICA SOLO
same thing

END
Suggest correction
Creating personal tab
Creating personal tab
You can edit any tab online and save it as your Personal.

You can edit, replace or remove any tab part or add personal notes – all changes will be seen only by you.

Personal tabs can be accessed anytime from any device, even offline.
Learn more »
Give kudos to tab author, rate the tab!
1 2 3 4 5
comments
print report bad tab
5 comments total. Showing first comments.
0 reply
treybo6788 10 Aug 17, 2006 05:36 PM

i dunno if this is right, in the video sessions for robert clapton plays this in open A tuning with the slide and its awesome but whatever works.

0 reply
mr_sinistah 26 Aug 03, 2007 06:32 PM

yer true, but this works hahahahaha, slide version is much more fun and sounds better:)

0 reply
CurtisJay 136 Nov 15, 2007 04:45 PM

any one notice that this sounds exactly like and is played exactly like, rollin and tumblin off both the unplugged album
and one of cream's albums? great with both sets of lyrics though, so fun adn easy

guest
You may want to rate the tab now too:
select rating
Wanna post a correction for this tab? Suggest correction