Oops, an error
Loading. Please wait.

It Hurts Me Too Bass Tab

version 2
version 2

Whole song

Interactive

1,346 views 1 this week
no commentswrite comment
1 2 3 4 5
3 more votes to show rating
add to favorites
launch autoscroll
font size
0
reset
guitar tuner
Autoscroll
slow
fast
+/-
esc
set tempo
stop
Help us to improve Ultimate-Guitar.com Take our survey!
×
Author
Difficulty
intermediate
Tuning: EADG   Song in D

|-----------------------------|-----------------------------|
|----------------12-------9-9-|----------------12-----------|
|-------9->12-14--(14)--------|-------9->12-14--(14)----9-9-|
|-10-10--------------10-10----|-10-10--------------10-10----|

|--------9-9-------9-9----------9-9----------9------9-|          
|------------12-12--------12-12--------12-12----12----|
|-10-10-----------------------------------------------|
|-----------------------------------------------------|

|-------------------------|-------------14--------------|
|--------9-9-------9------|-------14->16----------14-14-|
|------------12-12---9-10-|-12-12-----------------------|
|-10-10-------------------|------------------15-15------|


|------------------------------------|-----------------------|
|--12-12---10-12-10---9-10-9—--8-9-8-|-------------9—12------|
|------------------------------------|-12-12----10------12---|
|------------------------------------|-----------------------|

end
|-----------------------|
|--------------—--------|
|-12---12---------------|
|------------10---------|

(14) difficult to take – can be omitted
Suggest correction
Give kudos to tab author, rate the tab!
1 2 3 4 5
comments
print report bad tab
guest
You may want to rate the tab now too:
select rating
Wanna post a correction for this tab? Suggest correction