Oops, an error
Loading. Please wait.

Lay Down Sally Chords

version 1
version 1

Whole song

Interactive

135,315 views 180 this week
3 commentsread comments
1 2 3 4 5
x 87
add to favorites
launch autoscroll
font size
0
reset
transpose
0
reset
display chords
guitar tuner
Autoscroll
slow
fast
+/-
esc
set tempo
stop
Help us to improve Ultimate-Guitar.com Take our survey!
×
lay down sally

   A
e|----------------------------------------------------------------------------------|
B|----------------------------------------------------------------------------------|
G|-~-0-0-0---0-------2-~--------0-~-0---2------2-0-0-0-0---2-----------2-0-0---0----|
D|---------4---4-2---2----------2---2-4-2------2---------4-------------2-----4---4--|
A|-------------------0--------0----------------0-------------x-x-~-----0------------|
E|------------------------3s5--------------3s5---------------------3s5--------------|

e|--------------------0-2-2-|
B|--------------------------|
G|2--2-2-~-------2-2-2------|
D|--------------2-2-2-------|
A|-------------0------------|
E|---------3s5--------------|

strum# # #$#$#$#$#$#$


[verses]
   A                                                                    D
(1)there is nothing that is wrong in wanting you to      stay here with me
(2)the sun aint nearly on the rise and we still got the moon and stars above
(3)i long to see the morning light             coloring your face so dreamily

   A                                                                    D
 i know you got somewhere to go but wont you make your self at home and stay with me
underneath the velvet skies           love is all that matters wont you stay with me
so dont you go and say goodbye        you can lay your worries down and stay with me

             E
and dont you ever leave


[chorus]
A                    D
lay down sally   and rest herein my arms
E                                       A
dont you think you wont someone to talk to
A                    D
lay down sally    no need to leave so soon
E                                       A
ive been trying all night long just to talk to you
Suggest correction
comments
print report bad tab
3 comments total.
0 reply
Tanman_88 125 Apr 16, 2006 11:58 PM

nice

+2 reply
StarChild69 10 Mar 21, 2008 10:44 PM

Good tab but I would also play the F# note (Low E string, 2nd fret) with my thumb, making it a A/F# chord- I'm not sure if that's the way E.C. played it, but that how it sounds on the record.

-1 reply
musicforte 381 Jan 21, 2016 03:42 PM

Lack of formatting. It's an easy 3 chord song. But this is not formatted well for easy reading. Great tune to tab out, nonetheless. Thank you!

guest
You may want to rate the tab now too:
select rating
Wanna post a correction for this tab? Suggest correction