Oops, an error
Loading. Please wait.

Layla Tab

version 4
752,235 views 3,459 this week
75 commentsread comments
1 2 3 4 5
x 175
add to favorites
launch autoscroll
font size
0
reset
how to read this tab
guitar tuner
backing track
0:00
0:00
×
Best way to learn
"Layla"
Autoscroll
slow
fast
+/-
esc
set tempo
stop
[Guitar 1]

  Dm              D5 C5 Bb5    C5     D5
e|-------------------------------------------------|
B|-------------------------------------------------|
G|-------------------------------------------------|
D|-----0h3p0---0--/7-\5--3------5------7--repeat---|
A|-0h3-------3----/5-\3--1--0---3--0-3-5-----------|
E|----------------------------3--------------------|
(0:00)


[Guitar 2]

  Dm                D5 C5 Bb5    C5     D5
e|------------------------------------------|
B|------------------------------------------|
G|------7h10p7----7~~~~-hold tone...--------|
D|-7h10--------10---------------------------|
A|------------------------------------------|
E|------------------------------------------|
(0:00)


[Guitar 3]

(chords as above)

e|--------10h13p10----10~~--13b(15)rb13-12----10~~--------10h13p10----10~-15b(17)rb15-|
B|--10h13----------13----------------------13-------10h13----------13-----------------|
G|------------------------------------------------------------------------------------|
D|------------------------------------------------------------------------------------|
A|------------------------------------------------------------------------------------|
E|------------------------------------------------------------------------------------|
  (0:08)

e|-12-----10~~~---------|
B|----13---------repeat-|
G|--------root----------|
D|--------note----------|
A|--------D-------------|
E|----------------------|
  (0:16)

        D5  C5 Bb5   C5 D5
e|--------------------------------|
B|--------------------------------|
G|--------------------------------|
D|-------7---5-3--5---5-7-repeat--|
A|--0-3--5-5-3-1--3-0-3-5---------|
E|--------------------------------|
 (0:00)

C#m     G#m
What....lonely
C#m     E7
and.....s|de
F#m     B
You.....runn|ng
E       A
h|d|ng..long
F#m     B
you.....your
E       key change to D minor
pride...Layla

E - F# - G# - A - B - C#- D# - E

e|---------------------------------------------------------------|
B|-13b(14)----12b(14)rb12-p9-11b(12)-----11b(12)rb11-p9----------|
G|------------------------------------------------------11(b13)--|
D|---------------------------------------------------------------|
A|---------------------------------------------------------------|
E|---------------------------------------------------------------|
 (0:23)                     ...lonely...


***********************************
| /   Slide up
| \   Slide down
| h   Hummer-on
| p   Pull-off
| ~   Vibrato
| x   Dead note
| b   Bend
| brb Bend release bend 
***********************************
Suggest correction
comments
print report bad tab
75 comments total. Showing first comments.
+13 reply
vvvmell 10 Apr 18, 2002 08:00 PM

u stole this from that 12 bar blues site bitch.and no one cares about what you do on the toilet

+7 reply
ThAD0oD 40 Dec 31, 2002 07:00 PM

on the toilet is right, because this is a piece of $hit

+4 reply
lyongyorf 10 May 03, 2003 08:00 PM

Absolutely perfect! Remember, the first seven notes played very quickly. If it helps, hammer on the 4th note. Thanks for the great tab!

guest
You may want to rate the tab now too:
select rating
Wanna post a correction for this tab? Suggest correction