Oops, an error
Loading. Please wait.

Let It Grow Tab

version 1
version 1

Whole song

Interactive

37,995 views 48 this week
2 commentsread comments
1 2 3 4 5
accurate
x 6
add to favorites
launch autoscroll
font size
0
reset
how to read this tab
guitar tuner
Autoscroll
slow
fast
+/-
esc
set tempo
stop
Help us to improve Ultimate-Guitar.com Take our survey!
×
Contributor
Difficulty
Matt Montoya 3,119
intermediate
                                              Let It Grow
                                              Eric Clapton


Intro:

Chords

Bm                F#7       D                  E
Standin' at the crossroads, tryin' to read the signs

G            A                   
  To tell me which way I should

Bm             F#7         D              E
Go to find the answer, and all the time I know

G            A               B
  Plant your love and let it grow


B        Bmaj7          B
  Let It Grow,   Let It Grow

E        B               A
  Let it blossom, let it flow


B        Bmaj7              B
  In the sun, the rain, the snow,

E         B             F#7
  Love is lovely let it grow


Bm            F#7        D               E
Lookin' for a reason, to check out on my mind

G       A
 Tryin' hard to get a 

Bm                F#7               D               E
Friend that I can count on, there's nothing left to show

G            A               B
  Plant your love and let it grow

B        Bmaj7          B
  Let It Grow,   Let It Grow

E        B               A
  Let it blossom, let it flow


B        Bmaj7              B
  In the sun, the rain, the snow,

E         B             F#7
  Love is lovely let it grow


 Guitar I (Electric)
   G         D       Em          Bm         A                    G       D           Em
|-------3----2-------------------------------------------------------3---2h3p2------------------|
|---------------3-----------0----3--0------------------2---------0-------------3-----------0----|
|-/4---------------2-----0------------------------2-------2-----------------------2-----0-----0-|
|--------------------2-----------------5\------2-------------2-----------------------2----------|
|-------------------------------------------0---------------------------------------------------|
|-----------------------------------------------------------------------------------------------|
|Guitar II (Acoustic)
|--------------------------------------------------------------/10----/9------------------------|
|----------------------------------------------------------------------------------/12---/10----|
|-----------------------------------------------------------------------------------------------|
|-----------------------------------------------------------------------------------------------|
|-----------------------------------------------------------------------------------------------|
|-----------------------------------------------------------------------------------------------|


 Guitar I (Electric)
  Bm        F#                           Bm
|-----------------------------------------10-b9------------|
|-3--0------------------2------------------------7---------|
|--------------------------3-------------------------------|
|-------4---------4-----------4----------------------------|
|--------------4-----4-------------------------------------|
|-----------2----------------------------------------------|
|Guitar II (Acoustic)
|----------------------------------------------------------|
|---------------------------------------------------7--/12-|
|--------/11-----------------11\9------11------------------|
|---------------------------------12-----------------------|
|----------------------------------------------------------|
|----------------------------------------------------------|


Acoustic Guitar
  Bm      F#7     D     E      G     A    
|--------------/10------5-/7-7-------5/7--------|
|------------------------------5---------5------|
|-----------------------------------------------|
|-------------------------------------------7/9-|
|-----------------------------------------------|
|-----------------------------------------------|

Bm      F#7     D     E      G     A

Bm              F#7              D               E
Time is getting shorter, There's much for you to do

G     A                
 Only ask and you will

Bm               F#7          D             E
Get what you are needing, the rest is up to me

G            A               B
  Plant your love and let it grow


B        Bmaj7          B
  Let It Grow,   Let It Grow

E        B               A
  Let it blossom, let it flow


B        Bmaj7              B
  In the sun, the rain, the snow,

E         B             F#7
  Love is lovely let it grow


B        Bmaj7          B
  Let It Grow,   Let It Grow

E        B               A
  Let it blossom, let it flow

B        Bmaj7              B
  In the sun, the rain, the snow,

E         B             F#7
  Love is lovely let it grow

|-7--------7--9--------10---------10--9-----------------7------------9------|
|----7-----------7----------7------------7--7h9------8-----------10-----10--|
|-------7-----------7----------7------------------7--------7--9-------------|
|---------------------------------------------------------------------------|
|---------------------------------------------------------------------------|
|---------------------------------------------------------------------------|

|-7--------7--9--------10---------10--9-----------------7------------9------|
|----7-----------7----------7------------7--7h9------8-----------10-----10--|
|-------7-----------7----------7------------------7--------7--9-------------|
|---------------------------------------------------------------------------|
|---------------------------------------------------------------------------|
|---------------------------------------------------------------------------|

|-7--------7--9--------10---------10--9-----------------7------------9------|
|----7-----------7----------7------------7--7h9------8-----------10-----10--|
|-------7-----------7----------7------------------7--------7--9-------------|
|---------------------------------------------------------------------------|
|---------------------------------------------------------------------------|
|---------------------------------------------------------------------------|

|-------7-----9--------10---------10--9-----------------7------------9------|
|----7-----------7----------7------------7--7h9------8-----------10-----10--|
|-7--------7--------7----------7------------------7--------7--9-------------|
|---------------------------------------------------------------------------|
|---------------------------------------------------------------------------|
|---------------------------------------------------------------------------|

|-------7-----9--------10---------10--9-----------------7------------9------|
|----7-----------7----------7------------7--7h9------8-----------10-----10--|
|-7--------7--------7----------7------------------7--------7--9-------------|
|---------------------------------------------------------------------------|
|---------------------------------------------------------------------------|
|---------------------------------------------------------------------------|

|-------7-----9--------10---------10--9-----------------7------------9------|
|----7-----------7----------7------------7--7h9------8-----------10-----10--|
|-7--------7--------7----------7------------------7--------7--9-------------|
|---------------------------------------------------------------------------|
|---------------------------------------------------------------------------|
|---------------------------------------------------------------------------|

|-------7-----9--------10---------10--9-----------------7------------9------|
|----7-----------7----------7------------7--7h9------8-----------10-----10--|
|-7--------7--------7----------7------------------7--------7--9-------------|
|---------------------------------------------------------------------------|
|---------------------------------------------------------------------------|
|---------------------------------------------------------------------------|

|-------7-----9--------10---------10--9-----------------7------------9------|
|----7-----------7----------7------------7--7h9------8-----------10-----10--|
|-7--------7--------7----------7------------------7--------7--9-------------|
|---------------------------------------------------------------------------|
|---------------------------------------------------------------------------|
|---------------------------------------------------------------------------|

|-------7-----9--------10---------10--9-----------------7------------9------|
|----7-----------7----------7------------7--7h9------8-----------10-----10--|
|-7--------7--------7----------7------------------7--------7--9-------------|
|---------------------------------------------------------------------------|
|---------------------------------------------------------------------------|
|---------------------------------------------------------------------------|
                                                              Fade Away
Suggest correction new What's this?
You can suggest a correction to this tab. Community and Mods will review your correction and vote to approve or reject it.
comments
print report bad tab
2 comments total.
0 reply
erikgr 12 wrote on April 10 2010, 02:50 pm

Hi Matt.

A small correction:

E B G F#7
Love is lovely........let it grow

Regards

Erik.

0 reply
BJ59 274 wrote on November 26 2013, 08:55 pm

The correction should be

E B A F#7
Love is lovely........let it grow

guest
You may want to rate the tab now too:
select rating
Please do not post tabs as comments. Select "correction" instead!