Oops, an error
Loading. Please wait.

Let It Rain Chords

version 1
version 1

Whole song

Interactive

33,350 views 105 this week
no commentswrite comment
1 2 3 4 5
x 8
add to favorites
launch autoscroll
font size
0
reset
transpose
0
reset
simplify chords
display chords
guitar tuner
×
Best way to learn
"Let It Rain"
Autoscroll
slow
fast
+/-
esc
set tempo
stop
[Intro] (x2)

(several guitars arr. for two; acoustic plays chords indicated)

Guitar 1 (left channel)

   A                 G
   v   v   v   v     v   v   v   v
e|-0---------------|-----------------|
B|-5---5---5-3-5-8-|-----------------|
G|-----------------|---7-------------|
D|-----------------|-----------------|
A|-----------------|-----------------|
E|-----------------|-----------------|

Guitar 2 (right channel):

   v   v   v   v     v   v   v   v
e|-----------------|-----------------|
B|-2---2---2-0-2-3-|---0-------------|
G|-2---2---2-0-2-4-|---0-------------|
D|-----------------|-----------------|
A|-----------------|-----------------|
E|-----------------|-----------------|

[Bass]

   v   v   v   v     v   v   v        v
G|-----------------|---------14-14-14-----------|
D|-----------------|------------------14-14-14--|
A|-----------------|----------------------------|
E|-----------------|----------------------------|


Guitar 1:

                  [1:]                    [2:]
 (G)                A                         (G  F#m Em*)
   v   v   v   v     v   v     v     v       v   v   v   v
e|-----------------|-----------0-----------|-----------------|
B|-8---8---8-7--s10|-----------10-10-------|---8---7---5-----|
G|-------------7---|--------911-----11-11-9|-----------------|
D|-----------------|-----------------------|-----------------|
A|-----------------|-----------------------|-----------------|
E|-----------------|-----------------------|-----------------|
                                              ^^^^^^^^^
                                              omit before solo
                                              *E before solo

Guitar 2:

                   [1:]               [2:]
   v   v   v   v     v   v   v   v     v   v   v   v
e|-----------------|-----------------|-----------------|
B|-3---3---3-2-0-5-|-----------------|---3---2---0-----|
G|-4---4---4-2-0-6-|---------0-0-----|---4---2---0*----|
D|-----------------|-------24---4-4-2|-----------------|
A|-----------------|-----------------|-----------------|
E|-----------------|-----------------|-----------------|
                                                *1 before solo

[Bass]

   v   v   v   v     v   v   v   v
G|-----------------|-----------------|
D|-----------------|-----------------|
A|-12--------------|-----------------|
E|-----------------|-----------------|

[Verse]

     D                     Am
The rain has followed me through the mist
    C      G       D
Of sorrow that surrounded me
    (D)              Am
The sun could never thaw away
      C         G      D
The bliss that lays around me

[Chorus]

        D    Am         D   Am
Let it rain,    let it rain
          C         G      D
Let your love rain down on me
        D    Am         D   Am
Let it rain,    let it rain
        C     G   [1,3: D   2,4: A; to intro]
Let it rain, rain, rain

[Verse 2]
(same as verse 1)

My life was like a desert flower
Burning in the sun
Until I found the way to love
Was harder said than done

[Chorus]

        D    Am         D   Am
Let it rain,    let it rain
          C         G      D
Let your love rain down on me
        D    Am         D   Am
Let it rain,    let it rain
        C     G   [1,3: D   2,4: A; to intro]
Let it rain, rain, rain

[repeat intro; drums enter 2nd time]

[Solo]

F#m       F+     F#m7/E   F#m7/D#
Em7      A13      [3X]            Em7: 022030  A13: x02022

[Verse 3]
(same as verse 1)

Now I know the secret
There is nothing that I lack
When I give my heart to you
You'll surely give it back

[Chorus]

        D    Am         D   Am
Let it rain,    let it rain
          C         G      D
Let your love rain down on me
        D    Am         D   Am
Let it rain,    let it rain
        C     G   [1,3: D   2,4: A; to intro]
Let it rain, rain, rain

D    Am         D   Am
Let it rain,    let it rain
          C         G      D
Let your love rain down on me
        D    Am         D   Am
Let it rain,    let it rain
        C     G   [1,3: D   2,4: A; to intro]
Let it rain, rain, rain

[Coda]
(repeat first four bars of intro (18x); drums enter 2nd time, band and
 guitar solo 3rd time; disintegrates at end)



************************************

| s  slide

************************************
Suggest correction
comments
print report bad tab
guest
You may want to rate the tab now too:
select rating
Wanna post a correction for this tab? Suggest correction