Oops, an error
Loading. Please wait.

Old Love Tab

version 1
version 1

Solo

Whole song

Interactive

53,169 views 48 this week
7 commentsread comments
1 2 3 4 5
x 19
add to favorites
launch autoscroll
font size
0
reset
how to read this tab
guitar tuner
Autoscroll
slow
fast
+/-
esc
set tempo
stop
Help us to improve Ultimate-Guitar.com Take our survey!
×
e|-12-b12--------------------------------------------------------------|
B|-13-b13-----------------12--13-12-----12---13--12h13p12-----12--12~--|
G|---------14-----14--14------------(14)------------------14-----------|
D|-------------14------------------------------------------------------|
A|---------------------------------------------------------------------|
E|---------------------------------------------------------------------|

e|---------------------------------------------------------------------|
B|--12-13-15--13h15p13--12--13--12h13p12--------12-12-12~--------------|
G|------------------------------------------14---------------14-14-14--|
D|---------------------------------------------------------------------|
A|---------------------------------------------------------------------|
E|---------------------------------------------------------------------|

e|--12---10--12--10h12p10-------10-------------------------------------|
B|---------------------------13-----13--10--13--10-------10------------|
G|--------------------------------------------------(12)-----12/14-----|
D|---------------------------------------------------------------------|
A|---------------------------------------------------------------------|
E|---------------------------------------------------------------------|

e|-----------------------------------------7--8--7h8p7-------7---------|
B|-------------------------------------10----------------10-----10--8--|
G|---10--12--12--12--12/(7)/--------9----------------------------------|
D|---------------------------------------------------------------------|
A|---------------------------------------------------------------------|
E|---------------------------------------------------------------------|

e|---------------------------------------------------------------------|
B|---------------------------------------------------------------------|
G|--9--7--9--7---5h7p5------5--4---------------------------------------|
D|----------------------7--------7--5----------------------------------|
A|------------------------------------7--6--5--3---3--5--5/7--5--7-----|
E|-----------------------------------------------5------------------5--|

e|---------------------------------------------------------------------|
B|-------------------------------------------------5-------------------|
G|---------------------------------------4--5---7-----7--5h7p5--4---5--|
D|----------------------7---7------5--7--------------------------------|
A|---3--5----------(5)----------5--------------------------------------|
E|---------------------------------------------------------------------|

e|---------------------------------------------------------------------|
B|---------------------------------------------------------------------|
G|--4h5p4--2--4---2h4p2------2---------------------------------------5-|
D|-----------------------5--------5---2-------------------------5--7---|
A|----------------------------------------5---7-------3--5--5/7--------|
E|---------------------------------------------------------------------|

e|-------------------------8------8----/8-----8---10--10/12-----10--12-|
B|-------8--8--8--8--8-----8------8--------10--------------------------|
G|--7/9--9--9--9--9--9-----9------9------------------------------------|
D|---------------------------------------------------------------------|
A|---------------------------------------------------------------------|
E|---------------------------------------------------------------------|
 
e|---15--12-------12---12~-12~-12~--------12---------------------------|
B|------------15-------------------------------15--13--12---------12---|
G|---------------------------------------------------------14----------|
D|---------------------------------------------------------------------|
A|---------------------------------------------------------------------|
E|---------------------------------------------------------------------|

e|---------------------------------------------------------------------|
B|-----------------12--13------13--12----12~--12~--12~-----------------|
G|--14-------14-----------------------14-------------------------------|
D|------(14)-----------------------------------------------------------|
A|---------------------------------------------------------------------|
E|---------------------------------------------------------------------|

e|---------------------------------------------------------------------|
B|--13--15---13--15---15/17--15--17---15~--17---15h17p15--13-15-17-15--|
G|---------------------------------------------------------------------|
D|---------------------------------------------------------------------|
A|---------------------------------------------------------------------|
E|---------------------------------------------------------------------|

e|---------------------------------------------------------------------|
B|----------15--17--15h17p15-----15-17-15h17p15----15-17-15h17p15------|
G|--17--17--------------------17----------------17------------------17-|
D|---------------------------------------------------------------------|
A|---------------------------------------------------------------------|
E|---------------------------------------------------------------------|

e|---------------------------------------------------------------------|
B|----15-17-15h17p15------15-------------------------------------8--8--|
G|--------------------17------17--14--14--14--14--14--14----5/9--------|
D|---------------------------------------------------------------------|
A|---------------------------------------------------------------------|
E|---------------------------------------------------------------------|

e|----------------7--8--10--8h10p8------8--7--10--10--10--10--10---8---|
B|------8-----10--------------------10--------12--12--12--12--12--10---|
G|---9-----9-----------------------------------------------------------|
D|---------------------------------------------------------------------|
A|---------------------------------------------------------------------|
E|---------------------------------------------------------------------|

e|---8---8---7--7--7---5--5--------------------------------------------|
B|--10--10---8--8--8---5--5--------------------------------------------|
G|---------------------------7--5--4-----------------------------------|
D|------------------------------------7--5-----------------------------|
A|-------------------------------------------7--6--5~----3--5--3h5p3---|
E|-------------------------------------------------------------------5-|

e|---------------------------------------------------------------------|
B|---------------------------------------------------------------------|
G|---------------------------------------------------------------------|
D|---------------------------------------------------------------------|
A|--3--5-----3--5--5/6---5--3------3--5--3h5p3-----3-------------------|
E|--------5---------------------5---------------5-----5---3h5p3p0------|

e|---------------------------------------------------------------------|
B|---------------------------------------------------------------------|
G|---------------------------------------------------------------------|
D|----------------5--7--5h7p5-----5-----------------------5--7---------|
A|--5/7--7--7--7---------------7------7/5p3----5--3--5/7---------------|
E|---------------------------------------------------------------------|
 
e|------------------------------------------------7--8--10------8------|
B|---------------------5-----5-------8-----8--10-------------10-----10-|
G|---------4--5---5h7-----7-----7/9-----9------------------------------|
D|---5--7--------------------------------------------------------------|
A|---------------------------------------------------------------------|
E|---------------------------------------------------------------------|

e|---8--8--10--12--10h12p10-----10-----------------------------15--12--|
B|---------------------------13-----13/15------13------13~-------------|
G|-------------------------------------------------14------------------|
D|---------------------------------------------------------------------|
A|---------------------------------------------------------------------|
E|---------------------------------------------------------------------|

e|-------12------(0)---(0)-------------(0)-----------------------------|
B|---15------15--13----12------12--13--12---------------12--13--15-----|
G|------------------------------------------14------14-----------------|
D|----------------------------------------------14---------------------|
A|---------------------------------------------------------------------|
E|---------------------------------------------------------------------|

e|--12--12--12--12--12----------------------12--12--12/10--10--10------|
B|--15--15--15--15--15--15--13--13--12--12--13--13--13/12--12--12------|
G|---------------------------------------------------------------------|
D|---------------------------------------------------------------------|
A|---------------------------------------------------------------------|
E|---------------------------------------------------------------------|

e|------7---9--7h8p7-----7~--(7)---------------------------------------|
B|--10----------------8------------------------------------------------|
G|---------------------------------------------------------------------|
D|---------------------------------------------------------------------|
A|---------------------------------------------0---3-------------0---2~|
E|---------------------------------------0---3-------------0--3--------|

e|--------------------------------------------------------------------|
B|--------------------------------------------------------------------|
G|--------------------------------------------------------------------|
D|--------------------------------------------------------------------|
A|-----------0-----3--0-----------------------------------------------|
E|---0----3--------------3--------------------------------------------|


************************************

| (n)  Ghost note
| h    Hammer-on
| p    Pull-off
| b    Bend
| /    Slide 
| ~    Vibrato

************************************
Suggest correction
comments
print report bad tab
7 comments total. Showing first comments.
+1 reply
cocox2 640 Nov 27, 2004 12:00 AM

nico gay

+1 reply
handlerb 311 May 09, 2005 12:00 AM

This tab is a note for note copy of the unplugged book. Even at fifteen, I knew what copywright infringement was....

0 reply
deep_purple_00 10 Jan 28, 2006 06:34 AM

i hate people who copy stuff and dont give the orginal authour credit, you f***in d***head

guest
You may want to rate the tab now too:
select rating
Wanna post a correction for this tab? Suggest correction