Oops, an error
Loading. Please wait.

Ramblin On My Mind Live tab

version 3
version 3

Whole song

Interactive

397 views 18 this week
no commentswrite comment
1 2 3 4 5
x 3
add to favorites
×
Save as Personal and add changes to this tab that will be seen only by you. Learn more ›
×
You can save this tab as Personal to edit and correct it or add notes. All changes will be seen only by you. Learn more »
launch autoscroll
font size
0
reset
how to read this tab
guitar tuner
backing track
0:00
0:00
edit
Autoscroll
slow
fast
+/-
esc
set tempo
stop
Author
Difficulty
Live from Madison square.


[Intro]

e|-/4-4-4-4--4-3-3-3--3-2-2-2-2--0-----0--0-0--0-0--0-0----------------------|
B|-/3-3-3-3--3-2-2-2--2-1-1-1-1--0-------------------------0-0-0--0----------|
G|-/4-4-4-4--4-3-3-3--3-2-2-2-2--0h1-----------------------------------------|
D|-----------------------------------2----------------------------------2-2--|
A|-------------------------------------5-5--4-4--3-3--2---2-2--------/4------|
E|---------------------------------------------------------------------------|

e|--------------------------------------0-----------------0------------------|
B|--------------------------------------0------------2-0--0------------------|
G|---------------------------------0-----------------2-0h1-------------0-----|
D|---------------0---2-2-4-4-2-2-4---0----------------------------------0----|
A|-2-2-4-4-2-2-4---0-0-0-0-0-0-0-0-----2-2-4-4-2-2-4---------4-4-2-2-4-------|
E|-0-0-0-0-0-0-0-----------------------0-0-0-0-0-0-0--0----0-0-0-0-0-0-------|

e|---------------------------------------0------------------0----------------|
B|---------------------------------2-0---0------------2-0---0----------------|
G|---------------0-----------------2-0h1--------------2-0h1------------------|
D|-2-2-4-4-2-2-4---0-2-2-4-4-2-2-4-------------------------------------------|
A|-0-0-0-0-0-0-0-----0-0-0-0-0-0-0----------4-4-2-2-4----------4-4-2-2-4-----|
E|----------------------------------0-----0-0-0-0-0-0--0-----0-0-0-0-0-0-----|

e|--------------2-2------3-0---0-------------0--0-0--0-0--0-0----------------|
B|---------0-0--0-0----------3---3-0-----------------------------0--0-0--0---|
G|---------2-2--2-2------------------2/4p2-----------------------------------|
D|-------1-1-1--1-1------------------------0---------------------------------|
A|-0-1-2---2-2--2-2----0---------------------5-5--4-4--3-3--2---2-2----------|
E|------------------3b-------------------------------------------------------|


[Verse 1]

e|-----3/4-4-4-4-4-4-4-------------------------3/4-4-4-4-4-4-4-4-4--2/4-4-4--|
B|-----2/3-3-3-3-3-3-3-------------------------2/3-3-3-3-3-3-3-3-3--3/3-3-3--|
G|-----3/4-4-4-4-4-4-4---------------------1---3/4-4-4-4-4-4-4-4-4--2/4-4-4--|
D|-------------------------2-2-4-4-2-2-4---2---------------------------------|
A|-2-----------------------0-0-0-0-0-0-0-0-2---------------------------------|
E|-0-0------------------3b-----------------0-0-------------------------------|

e|-2-2-3----------------------------------0------0--------------0------------|
B|-3-3-4----------------------------------0-0---0-3-0-0---------0-3p2p0------|
G|-2-2-3------------------------------------2/4---------4\2p0----------2-0h1-|
D|---------------5b-2-2---2-4-4-2-2-4-2-----------------------2-------------2|
A|-------0-0-3-4--------0-0-0-0-0-0-0-0--------------------------------------|
E|--------------------------------------0----------------------0-------------|

e|-----------2--2-2----------------------------------------------------------|
B|-----------0--0-0----------------------------8-10-pb12pbr10p8-8~-----0-0-0-|
G|---------2-2--2-2----------------------1--/9-----------------9--9----------|
D|-------1-------------2-2-4-4-2-2-4-4-2-2-----------------------------------|
A|-0-1-2-------------0-0-0-0-0-0-0-0-0-0-2----------------------------2-2----|
E|---------------------------------------0--------------------------0--------|


[Verse 2]

e|-3/4-4-4-4-4-4-4-4-4-4----------------------------7---7--------------------|
B|-2/3-3-3-3-3-3-3-3-3-3--------------------------0-8b9-8b9---0--------------|
G|-3/4-4-4-4-4-4-4-4-4-4---------------------1---/9---------9--2/4-2-0-------|
D|----------------------------2-4-4-2-2-4----2-------------------------2-----|
A|-----------------------0--0-0-0-0-0-0-0----2-------------------------------|
E|------------------------3b--------------3b-0-------------------------------|

e|-----------------------------------------------------0-----0-0-----0-0-----|
B|-----------------------------------------------------0-1/3-3-3-1/3-3-3-----|
G|-------------------------------------------------------2/4-4-4-2/4-4-4-2-0-|
D|------------------2-2-4-4-2-2------5b--4-4-2-2-4-2------------------------2|
A|-2-2-4-4-2-2-4-4--0-0-0-0-0-0--3-4-----0-0-0-0-0-0-------------------------|
E|-0-0-0-0-0-0-0-0-----------------------------------0-----------------------|

e|---0---------------0----------2--2-2-2---------------------------0-------0-|
B|-----3p2p0---------0----------0--0-0-0---------------------------0-----0---|
G|-----------2-0h1--------------2--2-2-2-------------------0h1-1-----2/4-----|
D|-----------------2----------1-1--1-1-1-----2-2-4-4-2-2-4-----2-------------|
A|----------------------0-1-2---2--2-2-2-----0-0-0-0-0-0-0-----2-------------|
E|-0--------------------------------------3b-------------------0-------------|

e|---------------------------------------------------------------------------|
B|-3-0-0------------0-0-0--0-------------------------------------------------|
G|-------4\2-0---------------------------------------------------------------|
D|-------------2-------------------------------------------------------------|
A|-----------------2-2-------------------------------------------------------|
E|---------------0-----------------------------------------------------------|



************************************

| h    Hammer-on
| p    Pull-off
| b    Bend
| pb   Pre-bend
| pbr  Pre-bend release
| /    Slide up
| \    Slide down
| ~    Vibrato

************************************
Suggest correction
Creating personal tab
Creating personal tab
You can edit any tab online and save it as your Personal.

You can edit, replace or remove any tab part or add personal notes – all changes will be seen only by you.

Personal tabs can be accessed anytime from any device, even offline.
Learn more »
Give kudos to tab author, rate the tab!
1 2 3 4 5
comments
print report bad tab
guest
You may want to rate the tab now too:
select rating
Wanna post a correction for this tab? Suggest correction