Oops, an error
Loading. Please wait.

Rollin And Tumblin tab

version 1
version 1

Whole song

Interactive

30,774 views 66 this week
4 commentsread comments
1 2 3 4 5
x 5
add to favorites
×
Save as Personal and add changes to this tab that will be seen only by you. Learn more ›
×
You can save this tab as Personal to edit and correct it or add notes. All changes will be seen only by you. Learn more »
launch autoscroll
font size
0
reset
how to read this tab
guitar tuner
edit
Autoscroll
slow
fast
+/-
esc
set tempo
stop
Author
Difficulty
intermediate
Artist: Eric Clapton
Song: Rollin and tumblin
Album: Unplugged
Tuning: Standard
Tabbed by: Paul Brannigan

(This song is a blues in G, so therefore the chords are G-C-D.
It can be played with or without a slide)

(The rhythm fades in like this)
e|-----------------------------------------------|
B|-----------------------------------------------|
G|--0-3b-0----0-3b-0-0-0-0-0-0-3b-0----0--etc.---|
D|---------3b-----------------------3b-----------|
A|-----------------------------------------------|
E|-----------------------------------------------|

(0:06)
(The main theme goes like this)
e|-------------------------------------------------------------|
B|-------------------------------------------------------------|
G|-------12-12--12-12-12-12p10----10b------0-3b-0----0---------|
D|-12-12-----------------------12-----12----------3b----repeat-|
A|-------------------------------------------------------------|
E|-------------------------------------------------------------|

(0:48)          
e|---------------------------------|
B|---------------------------------|
G|--0-0--7-7-7-7--5-5-5\--0-3b-0---|
D|---------------------------------|
A|---------------------------------|
E|---------------------------------|

(1:05)
((Here are the chords between for slide guitar (G, C and D))
    G   C   D
e|--------------|
B|--0---5---7---|
G|--0---5---7---|
D|--0---5---7---|
A|--------------|
E|--------------|


************************************

| b  Bend
| p  Pull-off
| \  Slide down

************************************

            
            
Suggest correction
Creating personal tab
Creating personal tab
You can edit any tab online and save it as your Personal.

You can edit, replace or remove any tab part or add personal notes – all changes will be seen only by you.

Personal tabs can be accessed anytime from any device, even offline.
Learn more »
comments
print report bad tab
4 comments total. Showing first comments.
+3 reply
raftop 101 Jun 20, 2009 07:22 AM

it's very good IF you tune your guitar to Open G, otherwise it will suck

-1 reply
Enjoimachine 89 Jan 14, 2012 02:30 PM

wow... i don't even know

0 reply
AnrBjotk 50 May 07, 2017 07:55 AM

Does a tab for the ending solo exist anywhere? With ot without slide...

guest
You may want to rate the tab now too:
select rating
Wanna post a correction for this tab? Suggest correction