Oops, an error
Loading. Please wait.

Signe Ukulele Chords

version 1
version 1

Acoustic

  • From YouTube Video: Signe - ukulele ver by Oul use Noca model.
28 views 3 this week
no commentswrite comment
1 2 3 4 5
3 more votes to show rating
add to favorites
launch autoscroll
font size
0
reset
transpose
0
reset
simplify chords
display chords
guitar tuner
Autoscroll
slow
fast
+/-
esc
set tempo
stop
Help us to improve Ultimate-Guitar.com Take our survey!
×
Author
Difficulty
intermediate
About this tab version
From YouTube Video: Signe - ukulele ver by Oul use Noca model. Was this info helpful? Yes No
Eric Clapton - Signe (Unplugged) - Tabs for Ukulele
===================================================

Intro:           ..............................
                  1.2.3.           || 4.      |
  D       A        D       A       ||    D    |
||-----0-------0--|-----0-------0--||---------|------------|
||--2-------0-----|--2-------0-----||----2----|---------0--|
||--2-------1-----|--2-------1-----||----2----|----1h2-----|
||----------------|----------------||----2----|------------|


Part One:
  D                A                Em               A
 |-----0-------0--|-----4----------|-----2----------|-----0----------|
 |--2-------4-----|--5----------2--|--3--------3p2--|--0------3p2-0--|
 |--2-------4-----|--4------2h3----|--4--------4----|--1-------------|
 |----------------|----------------|----------------|----------------|

  D                B                Em               A
 |-----0----------|-----2----------|-----2----------|-----0----------|
 |--2------2p0----|--2----------2--|--3--------3p2--|--0------3p2-0--|
 |--2----------2--|--3------3h4----|--4--------4----|--1-------------|
 |----------------|----------------|----------------|----------------|


Part Two:
  D                Dsus4            Dsus4            ?
||-----0-------0--|-----0-------0--|-----0-------0--|-----0----------||
||--2-------2-----|--3-------3-----|--3-------3-----|--3------3p2-0--||
||--2-------2-----|--2-------2-----|--2-------2-----|--1------1------||
||----------------|----------------|----------------|----------------||


Part One:
  D                A                Em               A
 |-----0-------0--|-----4----------|-----2----------|-----0----------|
 |--2-------4-----|--5----------2--|--3--------3p2--|--0------3p2-0--|
 |--2-------4-----|--4------2h3----|--4--------4----|--1-------------|
 |----------------|----------------|----------------|----------------|

  D                B                Em               A
 |-----0----------|-----2----------|-----2----------|-----0----------|
 |--2------2p0----|--2----------2--|--3--------3p2--|--0------3p2-0--|
 |--2----------2--|--3------3h4----|--4--------4----|--1-------------|
 |----------------|----------------|----------------|----------------|


Part Two:
  D                Dsus4            Dsus4            ?
||-----0-------0--|-----0-------0--|-----0-------0--|-----0----------||
||--2-------2-----|--3-------3-----|--3-------3-----|--3------3p2-0--||
||--2-------2-----|--2-------2-----|--2-------2-----|--1------1------||
||----------------|----------------|----------------|----------------||


Part Three:                                          ...................................
                                                     1.              ||2.              |
  E3/B     A/B     B5/D             Em               A               ||A               |
||---------4---4--|-----2-------2--|-----2-------2--|-----0----------||-----0----------|
||---4p5---5---5--|--2-------2-----|--3-------3-----|--0------3p2-0--||--0----------0--|
||---4-----4---4--|--2-------2-----|--4-------4-----|--1-------------||--1------1h2----|
||----------------|----------------|----------------|----------------||----------------|
 
  
  A/B              B5/D             Em               E
 |-------4--4--4--|--2--2-------2--|-----2-------2--|-----0----------|
 |-------5--5--5--|--2--2----2-----|--3-------3-----|--0------3p2-0--|
 |-------4--4--4--|--2--2----2-----|--4-------4-----|--1-------------|
 |----------------|----------------|----------------|----------------|



Part Two:
  D                Dsus4            Dsus4            ?
||-----0-------0--|-----0-------0--|-----0-------0--|-----0----------||
||--2-------2-----|--3-------3-----|--3-------3-----|--3------3p2-0--||
||--2-------2-----|--2-------2-----|--2-------2-----|--1------1------||
||----------------|----------------|----------------|----------------||


Part One:
  D                A                Em               A
 |-----0-------0--|-----4----------|-----2----------|-----0----------|
 |--2-------4-----|--5----------2--|--3--------3p2--|--0------3p2-0--|
 |--2-------4-----|--4------2h3----|--4--------4----|--1-------------|
 |----------------|----------------|----------------|----------------|

  D                B                Em               A
 |-----0----------|-----2----------|-----2----------|-----0----------|
 |--2------2p0----|--2----------2--|--3--------3p2--|--0------3p2-0--|
 |--2----------2--|--3------3h4----|--4--------4----|--1-------------|
 |----------------|----------------|----------------|----------------|


Part Two:
  D                Dsus4            Dsus4            ?
||-----0-------0--|-----0-------0--|-----0-------0--|-----0----------||
||--2-------2-----|--3-------3-----|--3-------3-----|--3------3p2-0--||
||--2-------2-----|--2-------2-----|--2-------2-----|--1------1------||
||----------------|----------------|----------------|----------------||


Part Two, fade out and
  D                Dsus4            Dsus4            ?
||-----0-------0--|-----0-------0--|-----0-------0--|-----0----------||
||--2-------2-----|--3-------3-----|--3-------3-----|--3------3p2-0--||
||--2-------2-----|--2-------2-----|--2-------2-----|--1------1------||
||----------------|----------------|----------------|----------------||


End:
 D
|--5-------------|
|--2-------------|
|--2-------------|
|--2-------------|


From YouTube Video: Signe - ukulele ver by Oul use Noca model:
https://www.youtube.com/watch?v=F4ose6K9kUY
Suggest correction
Give kudos to tab author, rate the tab!
1 2 3 4 5
comments
print report bad tab
guest
You may want to rate the tab now too:
select rating
Wanna post a correction for this tab? Suggest correction