Oops, an error
Loading. Please wait.

Tears In Heaven Chords

version 1
403,527 views 705 this week
2 commentsread comments
1 2 3 4 5
accurate
x 28
add to favorites
launch autoscroll
font size
0
reset
transpose
0
reset
simplify chords
display chords
guitar tuner
Tab Pro tools
  • play this tab
  • loop segment
  • change instrument
  • show fretboard
  • metronome
×
Best way to learn
"Tears In Heaven"
Autoscroll
slow
fast
+/-
esc
set tempo
stop
Difficulty
intermediate
TC Tunes
C Note productions

Here are the chords to a great song without all the second guitar riffs.  The intro riff
worth learning however to make it sound right. Fir more advanced guitar you can also
the riff at the beginning of each verse rather than playing A C#m7 F#m7.  Best played on 
classical guitar.

Bm(e)  xx4430
F#m6   002222
C#m7   446454
E7sus  020200
Db/F   100121
F#sus4 242422

Intro
riff 1

         A          C#m7    F#m7  F#m6  D   AE7 A
--------------------4-4----2-2---2-2---2-2--0--0--0-|
---------2h3p2------4-4----2-2---2-2---3-3--2--0--2-|
-------2-------2--- 5-5----2-2---2-2---2-2--2--1--2-|
---------------------------2-2---2-2---0-0--2--0--2-|
------ 0------------------------------------0--2--0-|
-0h2----------------4-4----2-2---0-0-----------0----|

then
Riff 1a
-----------------------|
----------2------------|
-------2h4---4p2-------|
---2h4---------4p2-----|
0-------------------0--|
-----------------------|

Verse 1
 A	   C#m7	   F#m7 F#m6
Would you know my name,
D    A        	   E   A Bm(e)
If I saw you in heaven,
  A      C#m7       F#m7 F#m6
Would it be the same,
 D    A            E   A Bm(e)
If I saw you in heaven,

F#m	     Db/F
I must be strong,
A7         F#
and carry on,
F#7   F#sus4  Bm	        E7sus
Cause I       know I don't belong,
	   A
Here in heaven.

Riff 1 and 1a or
A C#m7 F#m7 F#m6 D A E7 A

Verse 2
A          C#m7       F#m7 F#m6
Would you hold my hand
D      A	    E  A Bm(e)
If I saw you in heaven
A	   C#m7      F#m7  F#m6
Would you help me stand
D	A	   E   A Bm(e)
If I saw you in heaven

F#m7	      Db/F  A7             F#
I'll find my way, through night and day
F#7   F#sus4  Bm	        E7sus
Cause I       know I just can't stay
	   A
Here in heaven

Riff 1  and 1a or
A C#m7 F#m7 F#m6 D A E7 A

to Bridge
----------|
----------|
----------|
----------|
-0-2-3----|
----------|

Bridge

C        G/B	     Am
Time can bring you down
	  D         G   D/F#  Em D/F# G
Time can bend your knee
C	 G/B        Am
Time can break your heart
         D       G     D/F#
Have you begging please
	  E    A  BM(e)
Begging please

Instrumnetal play verse

F#m7	    Db/F
Beyond the door
A7		   F#
There's peace I'm sure.
F#7 F#sus4  Bm                  E7sus
And I       know there'll be no more...
	   A
Tears in heaven

Riff 1  and 1a or
A C#m7 F#m7 F#m6 D A E7 A

Repeat verse 1 then

F#7   F#sus4   Bm                  E7sus
Cause I        Know there'll be no more
           A
tears in heaven

outtro

Riff 1 or
A C#m7 F#m7 F#m6 D A E7 A

end A
------------------------|
----------2-------------|
-------2h4---4p2--------|
---2h4---------4p2------|
0------------------4-0--|
------------------------|
comments
print report bad tab
2 comments total.
0 reply
zappel wrote on December 3 2009, 07:45 pm

Intro goes like this!!!

A E/G# F#m7 A/E D/F# E7sus E7 A
----------------------------------------------------------|
--------2h3p2------5-5----2-2---2-2---3-3-----3----3---2--|
------2-------2--- 4-4----2-2---2-2---2-2-----2----1---2--|
----------------------------------------------------------|
-----0-------------------------------------------------0--|
-0h2---------------4-4----2-2---0-0---2-2-----0----0------|

0 reply
zappel wrote on December 3 2009, 07:46 pm

sorry - chord position doesn't match tab position - you'll find out by yourself...

I want to post or [tab]
guest
You may want to rate the tab now too:
select rating
Please do not post tabs as comments. Select "correction" instead!