Oops, an error
Loading. Please wait.

Tears In Heaven Tab

version 1
271,248 views 171 this week
14 commentsread comments
1 2 3 4 5
x 34
add to favorites
launch autoscroll
font size
0
reset
how to read this tab
guitar tuner
×
Best way to learn
"Tears In Heaven"
Autoscroll
slow
fast
+/-
esc
set tempo
stop
Tuning
E A D G B E
Some Fills From Tears in Heaven
By Eric Clapton
by Brian S


[Fill 1]

(guitar 2 fill)
e|------------------------/7-5~-------------------------|
B|------------------------------/7--5~-----5~~---3~-----|
G|--------------------------------------6--------2~-----|
D|------------------------------------------------------|
A|------------------------------------------------------|
E|------------------------------------------------------|
 would you know my name?                           if i saw you in heaven

e|------------------------------------------------------|
B|------------------------7-9-10~~-9--7-----------------|
G|---------------------------------------9--------------|
D|------------------------------------------------------|
A|------------------------------------------------------|
E|------------------------------------------------------|
 would it be the same?                    if i saw you in heaven


[Guitar 2]

does this before some verses :
e|------------------------------------------------------|
B|-----------2-3-2--------------------------------------|
G|-------2-4-------4------------------------------------|
D|--2~h4------------------------------------------------|
A|------------------------------------------------------|
E|------------------------------------------------------|


[Tears in Heaven Solo]

   *guitar 2 plays this*
e|-------------------------|-----------------------------|
B|-----0-----2-----3-------|--14--------17-17-14~~~~~----|
G|-----1-----2-----4-------|-----14~~--------------------|
D|-------------------------|-----------------------------|
A|-------------------------|-----------------------------|
E|--0------0----0------0~~~|-----------------------------|
            ^^^^^^^^

            ----------------guitar 2 plays
                            above chords
e|-------------------------^^^^-------------------------|
B|-15-15-14-12----14-12~~-------14------(17)-19--14~~~~-|
G|-------------14------------------14~~-----------------|
D|------------------------------------------------------|
A|------------------------------------------------------|
E|------------------------------------------------------|

e|-------------------------------------------------------|
B|--15-15-14-12----14-12~~~-----0----2-----3-------------|
G|--------------14--------------1----2-----4-------------|
D|-------------------------------------------------------|
A|-------------------------------------------------------|
E|---------------------------0-----0----0-----0----------|into-F#m chorus chord



************************************

| (n)  Ghost note
| /    Slide up
| ~    Vibrato 

************************************
Suggest correction
comments
print report bad tab
14 comments total. Showing first comments.
0 reply
elix997 195 Jul 14, 2004 08:00 PM

good besides the solo

+1 reply
andreas5 793 Nov 04, 2005 10:22 AM

what are you talking about elix?!?! this tab is great .. the solo sounds nice!!

+4 reply
andreas5 793 Nov 04, 2005 10:32 AM

just one thing ... can you try , just try to explain how you do in this case : ---/7-5 .... how do you slide from nothing ? please answer :) , and if anyone else see this , write too me please

guest
You may want to rate the tab now too:
select rating
Wanna post a correction for this tab? Suggest correction