Oops, an error
Loading. Please wait.
We have an official Tears In Heaven tab made by UG professional guitarists. Check out the tab »
×

Tears In Heaven Acoustic tab

version 10
version 10

Whole song

Video

3,733 views 327 this week
no commentswrite comment
1 2 3 4 5
1 last vote to show rating
add to favorites
×
Save as Personal and add changes to this tab that will be seen only by you. Learn more ›
×
You can save this tab as Personal to edit and correct it or add notes. All changes will be seen only by you. Learn more »
launch autoscroll
font size
0
reset
how to read this tab
guitar tuner
backing track
0:00
0:00
edit
Autoscroll
slow
fast
+/-
esc
set tempo
stop
About this tab version
It is an arrangement by H. des Bouvrie. It's somewhat different from the other tabs of this song that people have posted. However, some parts do sound more like what can be heard in the original version of the song than the other tabs, primarily the sliding bit. Anyways, I thought it might be fun for people to be able to play the song in a different way. It's not too difficult, at least not more than the other versions. Was this info helpful? Yes No
This is an arrangement of Tears in Heaven by H. des Bouvrie. It's slightly different from the original
version, but it might be fun to try!

   
e||--------------------|----------------0-----0-----|-------7\5--------------|------------------------|
B||--------------------|-------2h3p2-------------2--|-------7\5--7\5----2----|-3-----3-----3-----3----|
G||--------------------|----2--------2--------------|------------6\4----2----|-2-----2-----2-----1----|
D||--------------------|-------------------2--------|------------------------|------------------------|
A||--------------------|-0--------------------------|------------------------|------------------------|
E||----------------0h2-|----------------4--------2--|----2-------0---------0-|-2--2-----2--0--0-----0-|


e|--------------------------|----------------0-----0-----|------------------------|----------0-------------|
B|-2-----2-----2-----2------|-------2h3p2-------------2--|-------2-----2-----2----|-3-----3-----2--0-------|
G|-2-----2-----2-----2------|----2--------2--------------|-------2-----2-----2----|-2-----2-----2-----2----|
D|--------------------------|-------------------2--------|------------------------|------------------------|
A|-0--0-----0--0--0--0------|-0--------------------------|------------------------|------------------------|
E|----------------------0h2-|----------------4--------2--|----2-----2--0--0-----0-|-2--2--2-----0--------0-|


e|------------------------|----------------0-----0-----|-------7\5--------------|----------0-------------|
B|-0-----0-----2-----3----|-2-----2h3p2-------------2--|-------7\5--7\5----2----|-3-----3-----2--0-------|
G|-1-----1-----2-----4----|-2-----------2--------------|------------6\4----2----|-2-----2-----2-----2----|
D|------------------------|-------------------2--------|------------------------|------------------------|
A|------------------------|-0--0-----------------------|------------------------|------------------------|
E|-0--0-----0-----0-----0-|----------------4--------2--|----2-------0---------0-|-2--2--2-----0--------0-|


e|------------------------|------------------------|------------------------|------------------------|
B|-0-----0-----2-----3----|-------2--------2-----2-|-------2--------2-----2-|-------2--------2-----2-|
G|-1-----1-----2-----4----|----2-----2-----2-------|----1-----1-----1-------|----0-----0-----0-------|
D|------------------------|------------------------|------------------------|------------------------|
A|------------------------|------------------------|------------------------|------------------------|
E|-0--0-----0-----0-----0-|-2-----------2-----2----|-1-----------1-----1----|-0-----------0-----0----|


e|---------------------|--------------------------|------------------0--|----------------0-----0-----|
B|-------2-----0----2--|--------3-----------------|----3--3-----3----3--|-------2h3p2-------------2--|
G|----3-----3----------|-----------4------4--4--2-|----2--2-----2----1--|-----2-------2--------------|
D|---------------------|-----4------------4-------|----2--2-----2-------|-------------------2--------|
A|------------------1--|--2-----------2-----------|---------------------|--0-------------------------|
E|-2-----------4-------|--------------------------|-2--------2----------|----------------4--------2--|


e|-------7\5--------------|------------------------|--------------------------|----------------0-----0-----|
B|-------7\5--7\5----2----|-3-----3-----3-----3----|-2-----2-----2-----2------|-------2h3p2-------------2--|
G|------------6\4----2----|-2-----2-----2-----1----|-2-----2-----2-----2------|----2--------2--------------|
D|------------------------|------------------------|--------------------------|-------------------2--------|
A|------------------------|------------------------|-0--0-----0--0--0--0------|-0--------------------------|
E|----2-------0---------0-|-2--2-----2--0--0-----0-|----------------------0h2-|----------------4--------2--|


e|------------------------|----------0-------------|------------------------|----------------0-----0-----|
B|-------2-----2-----2----|-3-----3-----2--0-------|-0-----0-----2-----3----|-2-----2h3p2-------------2--|
G|-------2-----2-----2----|-2-----2-----2-----2----|-1-----1-----2-----4----|-2-----------2--------------|
D|------------------------|------------------------|------------------------|-------------------2--------|
A|------------------------|------------------------|------------------------|-0--0-----------------------|
E|----2-----2--0--0-----0-|-2--2--2-----0--------0-|-0--0-----0-----0-----0-|----------------4--------2--|


e|-------7\5--------------|----------0-------------|------------------------|------------------------|
B|-------7\5--7\5----2----|-3-----3-----2--0-------|-0-----0-----2-----3----|-------2--------2-----2-|
G|------------6\4----2----|-2-----2-----2-----2----|-1-----1-----2-----4----|----2-----2-----2-------|
D|------------------------|------------------------|------------------------|------------------------|
A|------------------------|------------------------|------------------------|------------------------|
E|----2-------0---------0-|-2--2--2-----0--------0-|-0--0-----0-----0-----0-|-2-----------2-----2----|


e|------------------------|------------------------|---------------------|--------------------------|
B|-------2--------2-----2-|-------2--------2-----2-|-------2-----0----2--|--------3-----------------|
G|----1-----1-----1-------|----0-----0-----0-------|----3-----3----------|-----------4------4--4--2-|
D|------------------------|------------------------|---------------------|-----4------------4-------|
A|------------------------|------------------------|------------------1--|--2-----------2-----------|
E|-1-----------1-----1----|-0-----------0-----0----|-2-----------4-------|--------------------------|


e|------------------0--|----------------0-----0-----|-------7\5--------------|----------0-----------0-|
B|----3--3-----3----3--|-------2h3p2-------------2--|-------7\5--7\5----2----|-3-----3-----3-----3----|
G|----2--2-----2----1--|-----2-------2--------------|------------6\4----2----|-2-----2-----2-----1----|
D|----2--2-----2-------|-------------------2--------|------------------------|------------------------|
A|---------------------|--0-------------------------|------------------------|------------------------|
E|-2--------2----------|----------------4--------2--|----2-------0---------0-|-2--2--------0--0-------|

e|-------------0----------|-------0--0--------------|----------------------|-------------------------|
B|-------2----------------|-------1-----3-----0--1--|-----1-----3--------0-|-------0-----------------|
G|----2-----2-------------|----0-----------0--------|--------2--------2----|----------0--2-----2--0--|
D|------------------------|-------------------------|--2-----------0-------|----0-----------0--------|
A|-0------------------0h2-|-3-----------2--------0--|----------------------|-------------------------|
E|------------------------|-------------------------|-----------2----------|-3-----------2--------0--|


e|-------------------------|-------0--0--------------|----------------------|----------------------0-|
B|--------------------0----|-------1-----3-----0--1--|-----1-----3--------0-|----------0-----0--3----|
G|-----0-----2-------------|----0-----------0--------|--------2--------2----|-------0--------2-------|
D|--------2-----0--------0-|-------------------------|--2-----------0-------|----0-------------------|
A|--2----------------------|-3-----------2--------0--|----------------------|------------------------|
E|-----------2-----3-------|-------------------------|-----------2----------|-3-----------2----------|


e|-------0--------0-----0-|----------------0-----0-----|------------------------|----------0-------------|
B|-------0-----1-----3----|-------2h3p2-------------2--|-------2-----2-----2----|-3-----3-----2--0-------|
G|----1-----1--2-----4----|----2--------2--------------|-------2-----2-----2----|-2-----2-----2-----2----|
D|------------------------|-------------------2--------|------------------------|------------------------|
A|------------------------|-0--------------------------|------------------------|------------------------|
E|-0----------------------|----------------4--------2--|----2-----2--0--0-----0-|-2--2--2-----0--------0-|


e|------------------------|----------------0-----0-----|-------7\5--------------|----------0-------------|
B|-0-----0-----2-----3----|-2-----2h3p2-------------2--|-------7\5--7\5----2----|-3-----3-----2--0-------|
G|-1-----1-----2-----4----|-2-----------2--------------|------------6\4----2----|-2-----2-----2-----2----|
D|------------------------|-------------------2--------|------------------------|------------------------|
A|------------------------|-0--0-----------------------|------------------------|------------------------|
E|-0--0-----0-----0-----0-|----------------4--------2--|----2-------0---------0-|-2--2--2-----0--------0-|


e|------------------------|------------------------|------------------------|------------------------|
B|-0-----0-----2-----3----|-------2--------2-----2-|-------2--------2-----2-|-------2--------2-----2-|
G|-1-----1-----2-----4----|----2-----2-----2-------|----1-----1-----1-------|----0-----0-----0-------|
D|------------------------|------------------------|------------------------|------------------------|
A|------------------------|------------------------|------------------------|------------------------|
E|-0--0-----0-----0-----0-|-2-----------2-----2----|-1-----------1-----1----|-0-----------0-----0----|


e|---------------------|--------------------------|------------------0--|----------------0-----0-----|
B|-------2-----0----2--|--------3-----------------|----3--3-----3----3--|-------2h3p2-------------2--|
G|----3-----3----------|-----------4------4--4--2-|----2--2-----2----1--|-----2-------2--------------|
D|---------------------|-----4------------4-------|----2--2-----2-------|-------------------2--------|
A|------------------1--|--2-----------2-----------|---------------------|--0-------------------------|
E|-2-----------4-------|--------------------------|-2--------2----------|----------------4--------2--|


e|-------7\5--------------|----------0-----------0-|----------------------||
B|-------7\5--7\5----2----|-3-----3-----3-----3----|-2--------------------||
G|------------6\4----2----|-2-----2-----2-----1----|-2--------------------||
D|------------------------|------------------------|-2--------------------||
A|------------------------|------------------------|-0--------------------||
E|----2-------0---------0-|-2--2--------0--0-------|----------------------||



Lyrics:

Would you know my name
If I saw you in heaven?
Would you feel the same
If I saw you in heaven?
I must be strong and carry on
Cause I know I don't belong here in heaven...

Would you hold my hand
If I saw you in heaven?
Would you help me stand
If I saw you in heaven?
Ill find my way through night and day
Cause I know I just can't stay here in heaven...

Time can bring you down, time can bend your knees
Time can break your heart, have you begging please...begging please

Beyond the door there's peace Im sure
And I know therell be no more tears in heaven...

Would you know my name
If I saw you in heaven?
Would you feel the same
If I saw you in heaven?
I must be strong and carry on
Cause I know I don't belong here in heaven...



I hope you liked the first tab I uploaded to Ultimate-guitar.com .

If you have any suggestions (or found mistakes), please do let me know!

Enjoy



************************************

| h  Hammer-on
| p  Pull-off
| \  Slide down

************************************

            
            
Suggest correction
Creating personal tab
Creating personal tab
You can edit any tab online and save it as your Personal.

You can edit, replace or remove any tab part or add personal notes – all changes will be seen only by you.

Personal tabs can be accessed anytime from any device, even offline.
Learn more »
Give kudos to tab author, rate the tab!
1 2 3 4 5
comments
print report bad tab
guest
You may want to rate the tab now too:
select rating
Wanna post a correction for this tab? Suggest correction