Oops, an error
Loading. Please wait.

Tears In Heaven Tab

version 3
174,142 views 99 this week
3 commentsread comments
1 2 3 4 5
x 21
add to favorites
launch autoscroll
font size
0
reset
how to read this tab
guitar tuner
Autoscroll
slow
fast
+/-
esc
set tempo
stop
Help us to improve Ultimate-Guitar.com Take our survey!
×
Author
[Intro]
   H  HP
e|----------------|----------------|--------------|----------------|
B|----232-5---5-2-|---2---2----2---|3---3---3---3-|2---2---2---2---|
G|-------24---4-2-|---2---2----2---|2---2---2---1-|2---2---2---2---|
D|--2-------------|----------------|--------------|----------------|
A|0---------------|----------------|--------------|0-0---0---0---0-|
E|--------4-4---2-|-2---2-0--0---0-|2-2---2-0---0-|----------------|

(gtr 2)
e|---5/75---------|
B|-------5/75---5-|
G|-----------4/6--|
D|----------------|
A|----------------|
E|----------------|
  H  HPH
|----------------|----------------|------------0---|--------------|
|----232-5---5-2-|---2---2----2---|3---3---2-3---0-|--0---2----3--|
|-------24---4-2-|---2---2----2---|2---2---2-----1-|--1---2----4--|
|--2-------------|----------------|0-0---0---------|--------------|
|0---------------|----------------|----------------|--------4/5---|
|--------4-4---2-|-2---2-0--0---0-|--------------0-|0---0---------|
 Would you know my name  if I saw you in Heaven

(gtr 2)
  H
e|---2-4-45--4-2-0|
B|--------------|
G|--------------|
D|--------------|
A|--------------|
E|--------------|

  HPH
e|----------------|----------------|------------0---|--------------|
B|2---232-5---5-2-|---2---2----2---|3---3---2-3---0-|--0---2----3--|
G|2------24---4-2-|---2---2----2---|2---2---2-----1-|--1---2----4--|
D|----------------|----------------|0-0---0---------|--------------|
A|--0-------------|----------------|----------------|--------4/5---|
E|--------4-4---2-|-2---2-0--0---0-|--------------0-|0---0---------|
Would it be the same  if I saw you in Heaven

e|----2-----2-----|----1-----1-----|----0-----0-----|--------------|
B|--2-----2-----2-|--2-----2-----2-|--3-----3-----3-|--------------|
G|--2-----2-----2-|--1-----1-----1-|--0-----0-----0-|3---3----4---6|
D|----------------|----------------|----------------|4---4----4---6|
A|----------------|----------------|----------------|--------------|
E|2-----2-----2---|1-----1-----1---|0-----0-----0---|--2---2/4-4/6-|
I must be strongand carryonCause I

e|----------------|--------------|
B|----3-----3---3-|3-3---3-------|
G|----2-----2---2-|2-2---2-------|
D|--4-----4-----4-|2-2---2-------|
A|2-----2-----2---|--------------|
E|----------------|--------------|
 know I don't belong here in heaven  .........

Before the next verse the part of the 2nd guitar goes like this:

  H H HP P
e|--------------|
B|----232-------|
G|--24---42-----|
D|24-------42---|
A|--------------|
E|--------------|

[Bridge]
e|------------------|--------2---2---|----------------|------------|
B|----1-------1-----|----1---3---3--2|----2-------2---|----2--1--1-|
G|----0-------0-----|----0---2---2--0|----0-------0---|----0--0--0-|
D|--2-------2-------|--2-----0-0-0--0|----0-----0-----|--0----2--2-|
A|3-----3-2-----2---|0---------------|----------------|------------|
E|------------------|---------------3|--3---3-2-----2-|0------0--2-|
 Time can bring you down Time can bend your knees

e|----------------|--------2---2---|----------------|--------------|
B|----1-------1---|----1---3---3--2|----2---3---3---|0---0---2----3|
G|----0-------0---|----0---2---2--0|----0---2---2---|3---3---2----4|
D|--2-------2-----|--2-----0-0-0--0|----0-----------|--------------|
A|3-----3-2-----2-|0---------------|----------------|----------4/5-|
E|----------------|---------------3|--3---3-2-2---2-|0-0---0-------|
 time can break your heart  Have you beggin  please beggin please



************************************

| /  Slide up
| P  Pop

************************************
Suggest correction
comments
print report bad tab
3 comments total.
+1 reply
puddler 40 Mar 07, 2004 12:00 AM

thank you for putting the words in

0 reply
gamehaus 10 Oct 06, 2009 02:21 AM

Wow this is totally wrong.

0 reply
trybunt 62 Nov 21, 2016 09:28 AM

I can't remember where I learned this song, but this is exactly how I play it, except for the bridge.
Thanks for the Tab

guest
You may want to rate the tab now too:
select rating
Wanna post a correction for this tab? Suggest correction