Oops, an error
Loading. Please wait.

Tears In Heaven Tab

version 3
173,278 views 90 this week
3 commentsread comments
1 2 3 4 5
x 20
add to favorites
launch autoscroll
font size
0
reset
how to read this tab
guitar tuner
Autoscroll
slow
fast
+/-
esc
set tempo
stop
Help us to improve Ultimate-Guitar.com Take our survey!
×
Author
            "Tears In Heaven" (Unplugged)
 Intro:
  H     HP
 --]----------------]----------------]----------------]----------------]
 --]----232-5---5-2-]---2---2----2---]3---3---3---3---]2---2---2---2---]
 --]-------24---4-2-]---2---2----2---]2---2---2---1---]2---2---2---2---]
 --]--2-------------]----------------]----------------]----------------]
 --]0---------------]----------------]----------------]0-0---0---0---0-]
 02]--------4-4---2-]-2---2-0--0---0-]2-2---2-0---0---]----------------]

                    ]---5/75---------]
        2nd guitar  ]-------5/75---5-]
        part        ]-----------4/6--]
`                    ]----------------]
                    ]----------------]
                    ]----------------]
  H     HP                                    H
 --]----------------]----------------]------------0---]----------------]
 --]----232-5---5-2-]---2---2----2---]3---3---2-3---0-]--0---2----3----]
 --]-------24---4-2-]---2---2----2---]2---2---2-----1-]--1---2----4----]
 --]--2-------------]----------------]0-0---0---------]----------------]
 --]0---------------]----------------]----------------]--------4/5-----]
 02]--------4-4---2-]-2---2-0--0---0-]--------------0-]0---0-----------]
    Would you know my name              if I saw you in Heaven

                                           H
                    ]---2-4-45--4-2-0]
        2nd guitar  ]----------------]
        part        ]----------------]
                    ]----------------]
                    ]----------------]
                    ]----------------]
        HP                                    H
   ]----------------]----------------]------------0---]----------------]
   ]2---232-5---5-2-]---2---2----2---]3---3---2-3---0-]--0---2----3----]
   ]2------24---4-2-]---2---2----2---]2---2---2-----1-]--1---2----4----]
   ]----------------]----------------]0-0---0---------]----------------]
   ]--0-------------]----------------]----------------]--------4/5-----]
   ]--------4-4---2-]-2---2-0--0---0-]--------------0-]0---0-----------]
      Would it be the same              if I saw you in Heaven

   ]----2-----2-----]----1-----1-----]----0-----0-----]----------------]
   ]--2-----2-----2-]--2-----2-----2-]--3-----3-----3-]----------------]
   ]--2-----2-----2-]--1-----1-----1-]--0-----0-----0-]3---3----4---6--]
   ]----------------]----------------]----------------]4---4----4---6--]
   ]----------------]----------------]----------------]----------------]
   ]2-----2-----2---]1-----1-----1---]0-----0-----0---]--2---2/4-4/6---]
         I must be    strong            and carry      on      Cause I

   ]----------------]----------------]
   ]----3-----3---3-]3-3---3---------]
   ]----2-----2---2-]2-2---2---------]
   ]--4-----4-----4-]2-2---2---------]
   ]2-----2-----2---]----------------]
   ]----------------]----------------]
    know I don't belong here in heaven  .........

   Before the next verse the part of the 2nd guitar goes like this:

    H H HP P
   ]----------------]
   ]----232---------]
   ]--24---42-------]
   ]24-------42-----]
   ]----------------]
   ]----------------]

   Bridge:

 --]----------------]--------2---2---]----------------]--------------]
 --]----1-------1---]----1---3---3--2]----2-------2---]----2--1--1---]
 --]----0-------0---]----0---2---2--0]----0-------0---]----0--0--0---]
 --]--2-------2-----]--2-----0-0-0--0]----0-----0-----]--0----2--2---]
 02]3-----3-2-----2-]0---------------]----------------]--------------]
 --]----------------]---------------3]--3---3-2-----2-]0------0--2---]
       Time can bring you down Time can bend your knees

   ]----------------]--------2---2---]----------------]--------------]
   ]----1-------1---]----1---3---3--2]----2---3---3---]0---0---2----3]
   ]----0-------0---]----0---2---2--0]----0---2---2---]3---3---2----4]
   ]--2-------2-----]--2-----0-0-0--0]----0-----------]--------------]
   ]3-----3-2-----2-]0---------------]----------------]----------4/5-]
   ]----------------]---------------3]--3---3-2-2---2-]0-0---0-------]
    time can break your heart  Have you beggin  please beggin please
Suggest correction
comments
print report bad tab
3 comments total.
+1 reply
puddler 40 Mar 07, 2004 12:00 AM

thank you for putting the words in

-1 reply
gamehaus 10 Oct 06, 2009 02:21 AM

Wow this is totally wrong.

0 reply
trybunt 20 Nov 21, 2016 09:28 AM

I can't remember where I learned this song, but this is exactly how I play it, except for the bridge.
Thanks for the Tab

guest
You may want to rate the tab now too:
select rating
Wanna post a correction for this tab? Suggest correction