Oops, an error
Loading. Please wait.

Tears In Heaven Tab

version 6
32,836 views 84 this week
no commentswrite comment
1 2 3 4 5
excellent!
x 27
add to favorites
launch autoscroll
font size
0
reset
how to read this tab
guitar tuner
Autoscroll
slow
fast
+/-
esc
set tempo
stop
Help us to improve Ultimate-Guitar.com Take our survey!
×
Author
Difficulty
intermediate
[Intro] 

A   E/G#   F#m   A/E   D/F#   E7(4)   E7     PARTE 1


[Intro]

    A               E/G#   F#m      A/E
E|------------------------------------------|
B|---------2h3p2----5---5--2---2----2---2---|
G|-------2-------2--4------2---2----2---2---|
D|------------------------------------------|
A|-----0------------------------------------|
E|-0h2--------------4-4----2-2---2--0-0---0-|



    D/F#     E7(4) E7   A
E|------------------------------------------|
B|--3---3----3-----3----2---2---2---2-------|
G|--2---2----2-----1----2---2---2---2-------|
D|------------------------------------------|
A|----------------------0-0---0-0-0---------|
E|--2-2---2--0---0---0----------------------|


[Part 1]

A             E/G#   F#m  A/E
  Would you know my name
D/F#    A/E        E  A/E  E7
  If I saw you in heaven?
A           E/G#   F#m  A/E
  Would it be the same
D/F#    A/E        E  A/E  E7
  If I saw you in heaven?


    A                E/G#   F#m
E|------------------------------------------|
B|----------2h3p2----5---5--2---------------|
G|--------2-------2--4------2---------------|
D|------------------------------------------|
A|------0-----------------------------------|
E|--0h2--------------4-4----2-2-------------|



E|--5/7-5----------0------------------------|
B|--5/7-5-5/7-5--2--------------------------|
G|--------4/6-4--2--------------------------|
D|------------------------------------------|
A|------------------------------------------|
E|--------0---------------------------------|



    D/F#     A/E           A/E  E7
E|---------------0----------------------------|
B|--3---3----2h3---0---0---2----3-------------|
G|--2---2----2-----1---1---2----4-------------|
D|--------------------------------------------|
A|--------------------------------------------|
E|--2-2---2--0-----0-0---0-0-0----------------|



    A                E/G#   F#m
E|------------------------------------------|
B|----------2h3p2----5---5--2---------------|
G|--------2-------2--4------2---------------|
D|------------------------------------------|
A|------0-----------------------------------|
E|--0h2--------------4-4----2-2-------------|



  F#
E|---2-4-4/5-4-2-0---------------------------|
B|-------------------------------------------|
G|---2-4-4/6-4-2-1---------------------------|
D|-------------------------------------------|
A|-------------------------------------------|
E|-------0-----------------------------------|



    D/F#     A/E           A/E  E7
E|---------------0----------------------------|
B|--3---3----2h3---0---0---2----3-------------|
G|--2---2----2-----1---1---2----4-------------|
D|--------------------------------------------|
A|--------------------------------------------|
E|--2-2---2--0-----0-0---0-0-0----------------|


[Part 2]

F#m            Db/F
  I must be strong
A7/E        F#7
  And carry on
           Bm7            E7(4)
'Cause I know I don't belong

Here in heaven


   F#m              Db/F
E|------2-------2-------1-------1-----------|
B|--2---2---2---2---2---2---2---2-----------|
G|--2---2---2---2---1---1---1---1-----------|
D|------------------------------------------|
A|------------------------------------------|
E|--2-2---2-2-2---2-1-1---1-1-1---1---------|



   A7/E              F#7
E|------0-------0---------------------------|
B|--2---2---2---2----------------2----------|
G|--0---0---0---0----3---3---4--------------|
D|-------------------2---2------------------|
A|------------------------------------------|
E|--0-0---0-0-0---0--2-2---2---2------------|



    Bm7             E7(4)
E|------------------------------------------|
B|------3---3---3---3-3---3-----------------|
G|------2---2---2---2-2---2-----------------|
D|------------------------------------------|
A|--2-2---2-2-2-----------------------------|
E|----------------0-----0-------------------|


[Instrumental]
(Intro variation)

    A                E/G#   F#m
E|------------------------------------------|
B|----------2h3p2----5---5--2---------------|
G|--------2-------2--4------2---------------|
D|------------------------------------------|
A|------0-----------------------------------|
E|--0h2--------------4-4----2-2-------------|



E|--5/7-5----------0------------------------|
B|--5/7-5--------2--------------------------|
G|--------5/7-5--2--------------------------|
D|--------4/6-4-----------------------------|
A|------------------------------------------|
E|--------0---------------------------------|



    D/F#     E7(4) E7
E|------------------------------------------|
B|--3---3----3-----3------------------------|
G|--2---2----2-----1------------------------|
D|------------------------------------------|
A|------------------------------------------|
E|--2-2---2--0---0---0----------------------|



    A
E|------------------------------------------|
B|--2---2----------2h3p2--------------------|
G|--2---2------2h4-------4p2----------------|
D|---------2h4---------------4-2------------|
A|--0-0-------------------------------------|
E|------------------------------------------|


[Part 1]
(Variation)

A            E/G#    F#m  A/E
  Would you hold my hand
D/F#    A/E           E  A/E  E7
  If I saw you in heaven?
A            E/G#     F#m  A/E
  Would you help me stand
D/F#    A/E           E  A/E  E7
  If I saw you in heaven?

Segunda parte con variación en letra:
F#m             Db/F
  I'll find my way
A7/E                 F#7
  Through night and day
           Bm7             E7(4)
'Cause I know I just can stay

Here in heaven

(repite intro con variacion)


[Part 3]

C            G/B      Am7
  Time can bring you down
          D/F#       G   D/F#   Em9   D/F#   G
Time can bend your knees
C            G/B       Am7
  Time can break your heart
          D/F#     G    D/F#
Have you begging please
          E
Begging please

        C        G/B      Am7      D/F#
E|----------0--------3--------0-------------|
B|----------1--------3--------1--------3----|
G|--------0---0----0---0----2---2------2----|
D|-----------------------------------0---0--|
A|--0-2-3-----3--2-----2--0-----0-----------|
E|---------------------------------2-----2--|



    G       D/F#    Em9    D/F#   G
E|------------------------------------------|
B|--3---3---3---3---3---3---3-----3---------|
G|--4---4---2---2---0---0---2-----4---------|
D|------------------------------------------|
A|------------------------------------------|
E|--3-3---3-2-2---2-0-0---0-2--2--3---------|



    C        G/B      Am7      D/F#
E|------0--------3--------0-----------------|
B|------1--------3--------1--------3--------|
G|----0---0----0---0----2---2------2--------|
D|-------------------------------0---0------|
A|--3-----3--2-----2--0-----0---------------|
E|-----------------------------2-----2------|



    G       D/F      E
E|------------------------------------------|
B|--3---3---3---3---------------------------|
G|--4---4---2---2--------1-----2-----4------|
D|------------------------------------------|
A|---------------------2---2/4---4/5--------|
E|--3-3---3-2-2---2--0----------------------|


[Solo]

E|--9h10p9----12/14-12-9-------10--97--5--7/9--7-7----|
B|---------10-----------------------------------------|
G|------------------------9/11-----97--6--7/9--7-7----|
D|----------------------------------------------------|
A|----------------------------------------------------|
E|----------------------------------------------------|


[Base solo] x2

        A            E/G#  F#m      A/E
E|-------------------------------------------|
B|---------2h3p2-----5-----2---2----2---2----|
G|-------2-------2---4-----2---2----2---2----|
D|-------------------------------------------|
A|-----0-------------------------------------|
E|-0h2---------------4-----2-2---2--0-0---0--|



    D/F#     A/E   E      A/E  E7
E|---------------0--------------------------|
B|--3---3----2h3---0---0---2---3------------|
G|--2---2----2-----1---1---2---4------------|
D|------------------------------------------|
A|------------------------------------------|
E|--2-2---2--0-----0-0---0-0-0--------------|


[Part 2]
(variation)

F#m           Db/F
  Beyond the door
A7/E                 F#7
  There's peace I'm sure
        Bm7                E7(4)
And I know there'll be no more

Tears in heaven

(repite intro con variacion)


[Part 1]

A             E/G#   F#m  A/E
  Would you know my name
D/F#    A/E        E  A/E  E7
  If I saw you in heaven?
A           E/G#   F#m  A/E
  Would it be the same
D/F#    A/E        E  A/E  E7
  If I saw you in heaven?


[Part 2]

F#m            Db/F
  I must be strong
A7/E        F#7
  And carry on
           Bm7            E7(4)
'Cause I know I don't belong


[Outro]

            A   E/G#   F#m
Here in heaven
           Bm7            E7(4)
'Cause I know I don't belong

Here in heaven


   A                 E/G#  F#m      A/E
E|-------------------------------------------|
B|---------2h3p2-----5-----2---2----2---2----|
G|-------2-------2---4-----2---2----2---2----|
D|-------------------------------------------|
A|-----0-------------------------------------|
E|-0h2---------------4-----2-2---2--0-0---0--|



    Bm7           E7(4)
E|------------------------------------------|
B|------3---3---3---3-3---3-----------------|
G|------2---2---2---2-2---2-----------------|
D|------------------------------------------|
A|--2-2---2-2-2-----------------------------|
E|----------------0-----0-------------------|



    A                E/G#   F#m
E|------------------------------------------|
B|----------2h3p2----5---5--2---------------|
G|--------2-------2--4------2---------------|
D|------------------------------------------|
A|------0-----------------------------------|
E|--0h2--------------4-4----2-2-------------|



E|--5/7-5----------0------------------------|
B|--5/7-5--------2--------------------------|
G|--------5/7-5--2--------------------------|
D|--------4/6-4-----------------------------|
A|------------------------------------------|
E|--------0---------------------------------|



    D/F#    E7(4)  E7
E|------------------------------------------|
B|--3---3----3-----3------------------------|
G|--2---2----2-----1------------------------|
D|------------------------------------------|
A|------------------------------------------|
E|--2-2---2--0---0---0----------------------|



E|------------------------------------------|
B|--------2--3--2h3p2---------5-------------|
G|------2-------------4-2-4/6---------------|
D|----2-------------------------------------|
A|--0---------------------------------------|
E|------------------------------------------|



************************************

| h  Hammer-on
| p  Pull-off
| /  Slide up

************************************
Suggest correction
What's this?
You can suggest a correction to this tab. Community and Mods will review your correction and vote to approve or reject it.
comments
print report bad tab
guest
You may want to rate the tab now too:
select rating
Please do not post tabs as comments. Select "correction" instead!