Oops, an error
Loading. Please wait.

Them Changes tab

7,143 views 12 this week
2 commentsread comments
1 2 3 4 5
x 9
add to favorites
×
Save as Personal and add changes to this tab that will be seen only by you. Learn more ›
×
You can save this tab as Personal to edit and correct it or add notes. All changes will be seen only by you. Learn more »
launch autoscroll
font size
0
reset
how to read this tab
guitar tuner
edit
Autoscroll
slow
fast
+/-
esc
set tempo
stop
Author
Artist: Eric Clapton and Steve Winwood
Album: Live from Madison Square Garden
Composer: Buddy Miles

The Clapton/Winwood Version of the song is almost the same as the original
by Buddy Miles, although the guitar is more dominant here and of course
Clapton plays a guitar solo here (I won't tab it out, because I don't see
any sense in copying a guitar solo, and of course it's not that easy,
especially as Clapton is in this show way better than for example Hard Rock
Calling or CGF2007).

The Intro Part (sometimes repeated during the song, listen to it to hear where) goes 
this:

e--------------------------------------------------|
B--------------------------------------------------|
G--------------------------------------------------|
D-------5------------------------------------------|
A---7-7-----7-5-----------------5------------------|
E---------------8--5--5-----7-7-----7--5--3--0--0--|

Thanks to TCuffe74 for finding my little error in here.

The Main Part which is repeated all the time (during Claptons Solo Winwood 
plays a simplified version) is quite easy:

E----7----7-7--x------------------------------------------|
B----9----9-9--x------------------------------------------|
G----7----7-7--x------------------------------------------|
D----9----9-9--x------------------------------------------|
A----7----7-7--x-------7h9--7-----------------------------|
E------------------7h9------------------------------------|


Clapton sometimes varies the ending, but nothing great, perhaps adding one or two notes.

If you find any errors please comment and I'll change them.

            
            
Suggest correction
Creating personal tab
Creating personal tab
You can edit any tab online and save it as your Personal.

You can edit, replace or remove any tab part or add personal notes – all changes will be seen only by you.

Personal tabs can be accessed anytime from any device, even offline.
Learn more »
comments
print report bad tab
2 comments total.
+2 reply
TCuffe74 15 Feb 03, 2010 09:42 AM

For the main riff, try this instead:

e--------------------------------------------------|
B--------------------------------------------------|
G--------------------------------------------------|
D-------5------------------------------------------|
A---7-7-----7-5-----------------5------------------|
E---------------8--5--5-----7-7-----7--5--3--0--0--|

just a couple minor changes, but I think it sounds better, and is a little easier to play.

0 reply
kenny_gtr 201 Feb 03, 2010 10:14 AM

absolutely agree to your correction

guest
You may want to rate the tab now too:
select rating
Wanna post a correction for this tab? Suggest correction