Oops, an error
Loading. Please wait.

White Room tab

version 1
version 1

Whole song

Interactive

22,132 views 12 this week
7 commentsread comments
1 2 3 4 5
x 15
add to favorites
×
Save as Personal and add changes to this tab that will be seen only by you. Learn more ›
×
You can save this tab as Personal to edit and correct it or add notes. All changes will be seen only by you. Learn more »
launch autoscroll
font size
0
reset
how to read this tab
guitar tuner
backing track
0:00
0:00
edit
Autoscroll
slow
fast
+/-
esc
set tempo
stop
Author
Difficulty
                                              White Room
                                                Cream
                                            Wheels Of Fire


Intro:
  Gm        F         Dm       C    Gm        F         Dm       C  
|-10--------8---------5-----------|-10--------8---------5--------------------|
|-11--------10--------6--------8--|-11--------10--------6--------8--------8--|
|-12--------10--------7--------9--|-12--------10--------7--------9--------9--|
|-12--------10--------7--------10-|-12--------10--------7--------10-------10-|
|------------------------------10-|------------------------------10-------10-|
|---------------------------------|------------------------------------------|

(From "In the white room...")
|----------------------------------------|----------------------------------------|
|-----3------------3---------3-----------|-----3------------3---------3-----------|
|-----2------------0---------0-----3---5-|-----2------------0---------0-----3---5-|
|-0--------------------------------3---5-|-0--------------------------------3---5-|
|------------3-3---------2---------1---3-|------------3-3---------2---------1---3-|
|----------------------------------------|----------------------------------------|

(From "Blackroof country...")
|----------------------------------------|----------------------------------------|
|-----3------------3---------3-----------|-----3------------3---------3-----------|
|-----2------------0---------0-----3---5-|-----2------------0---------0-----3---5-|
|-0--------------------------------3---5-|-0--------------------------------3---5-|
|------------3-3---------2---------1---3-|------------3-3---------2---------1---3-|
|----------------------------------------|----------------------------------------|

(From "Silver horses...")
|----------------------------------------|----------------------------------------|
|-----3------------3---------3-----------|-----3------------3---------3-----------|
|-----2------------0---------0-----3---5-|-----2------------0---------0-----3---5-|
|-0--------------------------------3---5-|-0--------------------------------3---5-|
|------------3-3---------2---------1---3-|------------3-3---------2---------1---3-|
|----------------------------------------|----------------------------------------|

(From "Dawnlight smiles...")
|----------------------------------------|----------------------------------------|
|-----3------------3---------3-----------|-----3------------3---------3-----------|
|-----2------------0---------0-----3---5-|-----2------------0---------0-----3---5-|
|-0--------------------------------3---5-|-0--------------------------------3---5-|
|------------3-3---------2---------1---3-|------------3-3---------2---------1---3-|
|----------------------------------------|----------------------------------------|


(From "I wait in this place...) (Wah Pedal)
  C     G     A#    A     C     G     A#    C     D
|-----------------------|-------------------------2-|-------------|
|-1-----3-----3-----2---|-1-----3-----3-----5-----3-|-------------|
|-0-----0-----3-----2---|-0-----0-----3-----5-----2-|-----7-7---7-|
|-2-----0-----3-----2---|-2-----0-----3-----5-----0-|-7h9-----9---|
|-3-----2---------------|-3-----2-------------------|-------------|
|-----------------------|---------------------------|-------------|


(From "You said no strings...")
|----------------------------------------|----------------------------------------|
|-----3------------3---------3-----------|-----3------------3---------3-----------|
|-----2------------0---------0-----3---5-|-----2------------0---------0-----3---5-|
|-0--------------------------------3---5-|-0--------------------------------3---5-|
|------------3-3---------2---------1---3-|------------3-3---------2---------1---3-|
|----------------------------------------|----------------------------------------|

|------------------------------------------------|
|-----/13--13--13--10----------------------------|
|-7--------------------12--10--------------------|
|------------------------------12--10------------|
|--------------------------------------10--8-----|
|---------------------------------------------10-|

(From "Platform ticket...")
|----------------------------------------|----------------------------------------|
|-----3------------3---------3-----------|-----3------------3---------3-----------|
|-----2------------0---------0-----3---5-|-----2------------0---------0-----3---5-|
|-0--------------------------------3---5-|-0--------------------------------3---5-|
|------------3-3---------2---------1---3-|------------3-3---------2---------1---3-|
|----------------------------------------|----------------------------------------|

|----------------------------------8-------|
|-10h8--10--8---10---8---10---10------10-8-|
|------------------------------------------|
|------------------------------------------|
|------------------------------------------|
|------------------------------------------|

(From "I walked into...")
|----------------------------------------|----------------------------------------|
|-----3------------3---------3-----------|-----3------------3---------3-----------|
|-----2------------0---------0-----3---5-|-----2------------0---------0-----3---5-|
|-0--------------------------------3---5-|-0--------------------------------3---5-|
|------------3-3---------2---------1---3-|------------3-3---------2---------1---3-|
|----------------------------------------|----------------------------------------|

|-----------------------------10----------------------------|
|-----------------------10-------13-10-13p10----10----------|
|--------------10----10----------------------12----12-10----|
|-12\--10--12-----12-------------------------------------12-|
|-12\-------------------------------------------------------|
|-----------------------------------------------------------|

(From "As I walked out...")
|----------------------------------------|----------------------------------------|
|-----3------------3---------3-----------|-----3------------3---------3-----------|
|-----2------------0---------0-----3---5-|-----2------------0---------0-----3---5-|
|-0--------------------------------3---5-|-0--------------------------------3---5-|
|------------3-3---------2---------1---3-|------------3-3---------2---------1---3-|
|----------------------------------------|----------------------------------------|

|-----------------------------------10-------------------------------|
|------------------------------10------13-10-13p10----10-------------|
|-10b12--------------10--12p10---------------------12----12-10-------|
|---------12-10-12---------------------------------------------10h12-|
|--------------------------------------------------------------------|
|--------------------------------------------------------------------|


(From "I wait in the cue...")
  C     G     A#    A     C     G     A#    C     D
|-----------------------|-------------------------2-|
|-1-----3-----3-----2---|-1-----3-----3-----5-----3-|
|-0-----0-----3-----2---|-0-----0-----3-----5-----2-|
|-2-----0-----3-----2---|-2-----0-----3-----5-----0-|
|-3-----2---------------|-3-----2-------------------|
|-----------------------|---------------------------|

  Gm        F         Dm       C    Gm        F         Dm       C  
|-10--------8---------5-----------|-10--------8---------5--------------------|
|-11--------10--------6--------8--|-11--------10--------6--------8--------8--|
|-12--------10--------7--------9--|-12--------10--------7--------9--------9--|
|-12--------10--------7--------10-|-12--------10--------7--------10-------10-|
|------------------------------10-|------------------------------10-------10-|
|---------------------------------|------------------------------------------|



1st Guitar Solo (during singing):
|-8------------------------------------------------------14----14----14----14----14--12-|
|----10--8------------10---10---8-------------------------------------------------------|
|-----------10p7-------------------10--7----7--7---/14------14----14----14----14--------|
|----------------10----------------------10---------------------------------------------|
|---------------------------------------------------------------------------------------|
|---------------------------------------------------------------------------------------|

|------15-15----15-17--14------15--14--15--14-------------10-10---10-10-/17--------|
|-/17--------17--------------------------------15-----/12-------------------15-15--|
|----------------------------------------------------------------------------------|
|----------------------------------------------------------------------------------|
|----------------------------------------------------------------------------------|
|----------------------------------------------------------------------------------|

|--------------------17--------------------------------------------------------------|
|-17b19b17b19b17-b19-----19b17-15-15----15p18----15p18----15p18----15p18----15p18----|
|------------------------------------14-------17-------17-------17-------17-------17-|
|------------------------------------------------------------------------------------|
|------------------------------------------------------------------------------------|
|------------------------------------------------------------------------------------|

|-------------------------------------------------------------------------------------------------|
|-15p18----15p18----15p18----15p18------15-15---------15-15---------15-15-------15-15-------15-15-|
|-------17-------17-------17-------/17----------16/17---------16/17-------16/17-------16/17-------|
|-------------------------------------------------------------------------------------------------|
|-------------------------------------------------------------------------------------------------|
|-------------------------------------------------------------------------------------------------|

|--------------------------------19b17-----17------------------------------17-------------------|
|-------15---19-15-------15------------18-----18---15----15-15-15---17b19-----19b17-15-17----15-|
|-16/17------------16-14-----14-----------------------16----------------------------------16----|
|-----------------------------------------------------------------------------------------------|
|-----------------------------------------------------------------------------------------------|
|-----------------------------------------------------------------------------------------------|


(From "Asleep in this place..."
  C     G     A#    A     C     G     A#    C     D
|-----------------------|-------------------------2-|
|-1-----3-----3-----2---|-1-----3-----3-----5-----3-|
|-0-----0-----3-----2---|-0-----0-----3-----5-----2-|
|-2-----0-----3-----2---|-2-----0-----3-----5-----0-|
|-3-----2---------------|-3-----2-------------------|
|-----------------------|---------------------------|

  Gm        F         Dm       C    Gm        F         Dm       C  
|-10--------8---------5-----------|-10--------8---------5------------------------------|
|-11--------10--------6--------8--|-11--------10--------6--------8--------8-(feedback)-|
|-12--------10--------7--------9--|-12--------10--------7--------9--------9------------|
|-12--------10--------7--------10-|-12--------10--------7--------10-------10-----------|
|------------------------------10-|------------------------------10-------10-----------|
|---------------------------------|----------------------------------------------------|

2nd Outro Guitar Solo (04:00):
|------10-----------------10-----------------10----------------------------------------------------|
|-10-------13-----------------13-----------------10------------------------------------------------|
|--------------12b14--------------12b14--------------12b14b12--10--12------10----12-10----10-12-10-|
|----------------------------------------------------------------------12--------------12----------|
|--------------------------------------------------------------------------------------------------|
|--------------------------------------------------------------------------------------------------|

|----------------------------------------------------------------------13-------13-------13-|
|-----------13--13b15--13b15----13-10----------------------10----13h15----13h15----13h15----|
|-12p10-------------------------------12b14-10-12----10h12----------------------------------|
|-------12----------------------------------------12----------------------------------------|
|-------------------------------------------------------------------------------------------|
|-------------------------------------------------------------------------------------------|

|-------13-------13-------13--------13-------13-------13-------------------------------------10----|
|-13h15----13h15----13h15-----13h15----13h15----13h15-------------------------------------------13-|
|--------------------------------------------------------14p12\10------------12p10-12--12b14-------|
|-----------------------------------------------------------------12-10-12-------------------------|
|--------------------------------------------------------------------------------------------------|
|--------------------------------------------------------------------------------------------------|

|-------------------------------------------------------------------------------------------|
|-10----------------------------------------------------------------------------------------|
|----12---10h12p10-----10h12p10-----10h12p10-----10---10---------------10----12p10----------|
|------------------12-----------12-----------12----------12-10---10-12----12-------12-10-12-|
|-------------------------------------------------------------------------------------------|
|-------------------------------------------------------------------------------------------|

|--------------------------------10--------------------------10----------------------------|
|-13-13--10-13-10--13p10----13--------10-13p10----10----13-------13p10---------------------|
|------------------------12--------------------12----12----------------12p10-12---12p10----|
|---------------------------------------------------------------------------------------12-|
|------------------------------------------------------------------------------------------|
|------------------------------------------------------------------------------------------|

|--------------------------------------------------------------------------------------------------|
|-12------------10-13-------------------------10-----------------10-------------------13----13--13-|
|------12b14-----------12b14--12--10------12-----12-10-----10-12----12p10----10-12p10-12b14-14--14-|
|-------------------------------------12----------------12----------------12-----------------------|
|--------------------------------------------------------------------------------------------------|
|--------------------------------------------------------------------------------------------------|

|--13--13----------------------10-13p10-----------------------------------------------|
|-----------13h15-15-----10-13----------13-10-----------------------------------------|
|---------------------------------------------12-10-12p10------10----12p10------------|
|---------------------------------------------------------12------12-------12p10-12---|
|-------------------------------------------------------------------------------------|
|-------------------------------------------------------------------------------------|

|----10-----------------------13--10h13p10--------------------10----10-----------------------------|
|-13-----13b15--15b13--13b15---------------13--13b15---15b13-----------13-10-----------------------|
|----------------------------------------------------------------------------12p10----10-----------|
|----------------------------------------------------------------------------------12-----12-10-12-|
|--------------------------------------------------------------------------------------------------|
|--------------------------------------------------------------------------------------------------|

|-------------------------------------------------------------------|
|-------------------------------------------------------------------|
|-10--12p10--12b14--14b16--12b14--14b16--12b14--14b16--12b14--14b16-|
|-------------------------------------------------------------------|
|-------------------------------------------------------------------|
|-------------------------------------------------------------------|
                                         (fade away)

            
            
Suggest correction
Creating personal tab
Creating personal tab
You can edit any tab online and save it as your Personal.

You can edit, replace or remove any tab part or add personal notes – all changes will be seen only by you.

Personal tabs can be accessed anytime from any device, even offline.
Learn more »
comments
print report bad tab
7 comments total. Showing first comments.
0 reply
porchmonkey4lif 30 Oct 22, 2006 08:31 AM

all wrong

0 reply
ericclapton93 10 Jan 23, 2007 04:30 PM

It's awesome what are you talking about!?!

0 reply
Spikeruleshell 10 Jun 15, 2007 09:42 AM

Excellent tab. If it is wrong, who cares? It's close enough, and it's not like it's the official one. It sounds good, that's all I care about.

guest
You may want to rate the tab now too:
select rating
Wanna post a correction for this tab? Suggest correction