Oops, an error
Loading. Please wait.

Wonderful Tonight Chords

version 1
version 1

Acoustic

Whole song

Video

36,575 views 109 this week
2 commentsread comments
1 2 3 4 5
excellent!
x 7
add to favorites
launch autoscroll
font size
0
reset
transpose
0
reset
simplify chords
display chords
guitar tuner
Tab Pro tools
  • play this tab
  • loop segment
  • change instrument
  • show fretboard
  • metronome
×
Best way to learn
"Wonderful Tonight"
Autoscroll
slow
fast
+/-
esc
set tempo
stop
Contributor
Wonderful Tonight - Eric Clapton

This is the song I which I wrote and lived
This is my combo idea of chords and tabling combine, hope you like it requires a bit of practice.

I added a bit of detail hope that helps understand it better!!!

Hopefully I will make a video lesson for this song soon!


PLEASE RATE THIS TAB!


Slow Strum 4 count  |   <---When you see that line it means the count is over 

example: | 1 2 3 4 | 1 2 3 4 |  that way you know when to change the note.
Strum Legend: v=Down Strum ^=Up Strum V=Hammer Strum

****Important 

c? is this note sorry could not figureout the correct name of that note.

e|------2---|
B|------3---|
G|----------|
D|----------|
A|----------|
E|----------|

This chord are not correct from the auto chart so I wanted to let you know thatmay 
be i got the name wrong but not the chord. So when you see this markers, the 
chrods are represented on the chart. FYI if you know the chords names E-Mail me so i can fix it.

    Db            Cb
e|------2---|  e|------0---|
B|------0---|  B|------0---|
G|------2---|  G|------0---|
D|------0---|  D|------2---|
A|----------|  A|------3---|
E|----------|  E|----------|



Start single strum repeat once:
 
Tempo :| 1    2    3    4   |  1    2    3    4 
Notes:   G7 G G7   Db  D? D     C Cb  C   Db  D? D
Strum:   v v ^ ^V  v v ^ ^V    v v ^ ^V  v v ^ ^V


G7   G     G7     D/B    D?    D
 It’s late in the evening

C  Cb  C         Db    D?    D
 She’s wondering what clothes to wear

G7 G  G7     Db   D?    D
 She puts on her make up

C  Cb  C    Db     D?    D
 And brushes her long blonde hair

*****Note: You need this for the next part*****
e|----------|  <---This is "e string 6"
B|----------|
G|----------|
D|----------|
A|----------|
E|----------|
***********************************************
Tempo :| 1    2    3    4   |  1    2    3    4 |  
Note:    C    E("String 6")    Db   D?    D       
Strum:   V    ^    ^    ^      V   v     v   
Verse:  And then               she asks me              

Tempo :| 1    2    3    4   |  1    2    3    4 |  
Note:    Db           D         EM        Look at TAB
Strum:   v^v^v^      V         V         ***********
Verse:   Do I look   alright?            


    And I say yes ...
e|-----------------------------------------------------------------------|
B|---------0--2----------------------------------------------------------|
G|---0--2----------------------------------------------------------------|
D|-----------------------------------------------------------------------|
A|-----------------------------------------------------------------------|
E|-----------------------------------------------------------------------|


Tempo :| 1    2    3    4   |    
Note:    C Cb  C  Cb  Db  D     
Strum:   V  V  V  V   V  V
Verse:   you look   wonderful  


     to o o night ....
e|--------------3-------------------------------------------------------|
B|--------------3-------------------------------------------------------|
G|---0--0---------------------------------------------------------------|
D|---------0------------------------------------------------------------|
A|--------------2-------------------------------------------------------|
E|--------------3-------------------------------------------------------|

(Once)
Tempo :| 1    2    3    4   |  1    2    3    4 
Notes:   G7 G G7   Db  D? D    C Cb  C  Db  D? D
Strum:   v v ^ ^V  v v ^ ^V    v v ^ ^V  v v ^ ^V


**** Adapt the same chrods and tabs to the rest of the verses

We go a party
And everyone turns to see
This beautiful lady
Is walking around with me
then she asks me
Do you feel alright?
And I say yes, I feel wonderful tonight


   D          C
   I feel wonderful

   D               G         D       Em
   because I see the love light in your eyes

          C            D
   And the wonder of it all

                C              D
   Is that you just don’t realize

                G
   How much I love you

(Once)
Tempo :| 1    2    3    4   |  1    2    3    4 
Notes:   G7 G G7   Db   D? D   C Cb  C   Db  D? D
Strum:   v v ^ ^V  v v ^ ^V    v v ^ ^V  v v ^ ^V
   

It’s time to go home now
And I’ve got an aching head
So I give her the car keys
And she helps me to bed
And then I tell her
As I turn out the light
I say my darling, you were wonderful tonight

(Repeat TAb)
Oh my darling, you are wonderful tonight


By Jay Reina
comments
print report bad tab
2 comments total.
0 reply
zackfeld52 wrote on April 15 2009, 05:58 pm

You have, respectively, D6 and CMaj7

0 reply
JayReina wrote on April 22 2009, 12:21 am

thx

I want to post or [tab]
guest
You may want to rate the tab now too:
select rating
Please do not post tabs as comments. Select "correction" instead!