Oops, an error
Loading. Please wait.

Wonderful Tonight Tab

version 1
96,615 views 93 this week
11 commentsread comments
1 2 3 4 5
x 27
add to favorites
launch autoscroll
font size
0
reset
how to read this tab
guitar tuner
×
Best way to learn
"Wonderful Tonight"
Autoscroll
slow
fast
+/-
esc
set tempo
stop
[Intro]
    G                D                C
E|----------------|----------------|----------------|
B|-0--------------|----------------|----------------|
G|-0-----0-/4-2-0-|-2-----2-/4-2-0-|---------/4-2-0-|
D|-----0----------|-0---0----------|-2-----2--------|
A|----------------|----------------|-3---3---------0|
E|-3--------------|----------------|----------------|
    1   2   3   4    2   2   3   4    3   2   3   4   
    D
E|-------0--------|
B|---0-1---3------|
G|-2---------2---2|
D|-------------0--|  
A|--0-0-0-0-------|
E|----------------|
    4   2   3   4         

[Verse]
   G                 D                C
E|----------------|-------2--------|----------------|
B|-0-------0------|-3---------3---0|-1-------1------|
G|-0-0---0---0---0|---2---------2--|---0---0---0---0|
D|-----0-------0--|-----0----------|-----2-------2--|
A|----------------|-0--------------|----------------|
E|-3--------------|----------------|-3--------------|
    1   2   3   4    2   2   3   4    3   2   3   4   

    D                G                D
E|-------2--------|----------------|-------2--------|
B|-3---------3---0|-0-------0------|-3---------3---0|
G|---2---------2--|-0-0---0---0---0|---2---------2--|
D|-----0----------|-----0-------0--|-----0----------|
A|-0--------------|----------------|-0--------------|
E|----------------|-3--------------|----------------|
    4   2   3   4    1   2   3   4    2   2   3   4      

    C                D                C
E|----------------|-------2--------|----------------|
B|-1-------1------|-3----------3---|---------1------|
G|---0---0---0---0|---2------------|-----0-----0---0|
D|-----2-------2--|-----0----------|---2---2-----2--|
A|----------------|-0-----------0-2|-3-------3------|
E|-3--------------|----------------|----------------|
    3   2   3   4    4   2   3   4    1   2   3   4  

    D                G                Em
E|-------2--------|----------------|----------------|
B|-----3----3-----|-0-------0------|-0--------------|
G|---2--------2--2|---0---0---0---0|---0---0--------|
D|-0-----------0--|-----0-------0--|-----2-----2---0|
A|----------------|----------------|-------------2--|
E|----------------|-3-------2------|-0-----0--------|
    2   2   3   4    3   2   3   4    4   2   3   4  

    C                D                G
E|-------1--------|-------2--------|----------------|
B|-1--------------|-3---------3---3|-0---0---0---0--|
G|---0-------0---0|---2---------2--|-0---0---0---0--|
D|-----2-------2--|-----0----------|---0---0---0----|
A|-3-----3--------|-0-----0--------|----------------|
E|----------------|----------------|-3---3---3---3--|
    1   2   3   4    2   2   3   4    3   2   3   4

[Instrumental]
    G                D                C
E|----------------|----------------|----------------|
B|-0--------------|----------------|----------------|
G|-0-----0-/4-2-0-|-2-----2-/4-2-0-|---------/4-2-0-|
D|-----0----------|-0---0----------|-2-----2--------|
A|----------------|----------------|-3---3---------0|
E|-3--------------|----------------|----------------|
    1   2   3   4    2   2   3   4    3   2   3   4   

    D
E|-------0--------|
B|---0-1---3------|
G|-2---------2---2|
D|-------------0--|  
A|--0-0-0-0-------|
E|----------------|
    4   2   3   4   

[Verse]
   G                 D                C
E|----------------|-------2--------|----------------|
B|-0-------0------|-3---------3---0|-1-------1------|
G|-0-0---0---0---0|---2---------2--|---0---0---0---0|
D|-----0-------0--|-----0----------|-----2-------2--|
A|----------------|-0--------------|----------------|
E|-3--------------|----------------|-3--------------|
    1   2   3   4    2   2   3   4    3   2   3   4   

    D                G                D
E|-------2--------|----------------|-------2--------|
B|-3---------3---0|-0-------0------|-3---------3---0|
G|---2---------2--|-0-0---0---0---0|---2---------2--|
D|-----0----------|-----0-------0--|-----0----------|
A|-0--------------|----------------|-0--------------|
E|----------------|-3--------------|----------------|
    4   2   3   4    1   2   3   4    2   2   3   4      

    C                D                C
E|----------------|-------2--------|----------------|
B|-1-------1------|-3----------3---|---------1------|
G|---0---0---0---0|---2------------|-----0-----0---0|
D|-----2-------2--|-----0----------|---2---2-----2--|
A|----------------|-0-----------0-2|-3-------3------|
E|-3--------------|----------------|----------------|
    3   2   3   4    4   2   3   4    1   2   3   4  

    D                G                Em
E|-------2--------|----------------|----------------|
B|-----3----3-----|-0-------0------|-0--------------|
G|---2--------2--2|---0---0---0---0|---0---0--------|
D|-0-----------0--|-----0-------0--|-----2-----2---0|
A|----------------|----------------|-------------2--|
E|----------------|-3-------2------|-0-----0--------|
    2   2   3   4    3   2   3   4    4   2   3   4  

    C                D                G
E|-------1--------|-------2--------|----------------|
B|-1--------------|-3---------3---3|-0---0---0---0--|
G|---0-------0---0|---2---------2--|-0---0---0---0--|
D|-----2-------2--|-----0----------|---0---0---0----|
A|-3-----3--------|-0-----0--------|----------------|
E|----------------|----------------|-3---3---3---3--|
    1   2   3   4    2   2   3   4    3   2   3   4

    G                C                D
E|----------------|-------0--------|-------2--------|
B|----------------|-1--------------|-3--------------|
G|-2--0-----------|-0-----0-----0--|-2-----2-----2--|
D|--0---0-454-2-0-|-----2-----2---2|-----0-----0---0|
A|----------------|-3-----3--------|-0-----0--------|
E|----------------|----------------|----------------|
    4   2   3   4    1   2   3   4    2   2   3   4      

    G                Em               C
E|----------------|----------------|-------0--------|
B|-0-------0------|-0--------------|-1--------------|
G|---0---0---0---0|---0---0-----0--|---0-------0---0|
D|-----0-------0--|-----2-----2---0|-----2-------2--|
A|----------------|----------------|-3-----3--------|
E|-3-------2------|-0-----0--------|----------------|
    3   2   3   4    4   2   3   4    1   2   3   4  

    D                C                D
E|-------2--------|----------------|----------------|
B|-3---------3---0|-1-------1------|-3--------------|
G|---2---------2--|---0-------0---0|----------------|
D|-----0----------|-----2-------2--|----------------|
A|-0-----0--------|-3-----3--------|-0--------------|
E|----------------|----------------|----------------|
    2   2   3   4    3   2   3   4    4   2   3   4  
 
[Intro] x2
[Verse] x1


************************************

| /  Slide up

************************************
Suggest correction
comments
print report bad tab
11 comments total. Showing first comments.
0 reply
ABRAXAS 10 May 07, 2002 08:00 PM

Great tab, I've always wanted to play this song.

0 reply
wangoztango 10 May 29, 2002 08:00 PM

excellent tab man straight up!

-1 reply
Knightfal 10 Jun 11, 2002 08:00 PM

umm.. me don't hear ay melody line...

guest
You may want to rate the tab now too:
select rating
Wanna post a correction for this tab? Suggest correction