Oops, an error
Loading. Please wait.
We have an official Wonderful Tonight tab made by UG professional guitarists. Check out the tab »
×

Wonderful Tonight bass

262 views 3 this week
1 commentread comment
1 2 3 4 5
3 more votes to show rating
add to favorites
×
Save as Personal and add changes to this tab that will be seen only by you. Learn more ›
×
You can save this tab as Personal to edit and correct it or add notes. All changes will be seen only by you. Learn more »
launch autoscroll
font size
0
reset
guitar tuner
backing track
0:00
0:00
edit
Autoscroll
slow
fast
+/-
esc
set tempo
stop
About this tab version
Because it's a tutorial tab, clear as water, easy for beginners to play it and practise... Was this info helpful? Yes No
WOMDERFUL TONIGHT – ERIC CLAPTON

[Intro]
  G   D/F#  C   D  (X2)
G|-----------|-----------|-----------|-------2r--||-
D|-------4r--|-----------|-----------|-2--4------||-
A|-----5-----|-5-\-3h----|-3-/-5h----|-----------||-  X2
E|-3r--------|-----------|-----------|-----------||-

[Verse 1]
G|-----------|-----------|-----------|-------2r--||-
D|-------4r--|-----------|-----------|-2--4------||-
A|-----5-----|-5-\-3h----|-3-/-5h----|-----------||-  X2
E|-3r--------|-----------|-----------|-----------||-
G                   D/F#
It's late in the evening
C                         D
She's wondering what clothes to wear
G                  D/F#
She puts on her make up
C                   D
And brushes her long blonde hair


[Chorus]
G|---------|---------|------------------|-
D|---------|---------|---5r--5-0--0-2r--|-
A|-x-2-3r--|--3--5r--|-5----------------|-
E|---------|---------|------------------|-
C               D
And then she asks me
G       D       Em
Do I look alright

G|---------|---------|--------|-
D|---------|---------|--------|-
A|-0-2-3r--|--3--5r--|-5------|-
E|---------|---------|---3r---|-
              C             D           G>     
And I say yes, you look wonderful tonight


[Interlude]  >G     D/F#  C  D
G|-----------|-----------|-----------|-------2r--||-
D|-------4r--|-----------|-----------|-2--4------||-
A|-----5-----|-5-\-3h----|-3-/-5h----|-----------||-  X2
E|-3r--------|-----------|-----------|-----------||-


[Verse 2]
G|-----------|-----------|-----------|-------2r--||-
D|-------4r--|-----------|-----------|-2--4------||-
A|-----5-----|-5-\-3h----|-3-/-5h----|-----------||-  X2
E|-3r--------|-----------|-----------|-----------||-
G           D/F#
We go a party
C                D
And everyone turns to see
G                 D/F#
This beautiful lady
C                   D
That's walking around with me


[Chorus]
G|---------|---------|------------------|-
D|---------|---------|---5r--5-0--0-2r--|-
A|-x-2-3r--|--3--5r--|-5----------------|-
E|---------|---------|------------------|-
C               D
And then she asks me
G         D       Em
Do you feel alright

G|---------|---------|------------|-
D|---------|---------|------------|-
A|-0-2-3r--|--3--5r--|-5----------|-
E|---------|---------|---3rrrrrrr-|-
           C           D           G
And I say yes, I feel wonderful tonight

[Verse 3]
G|---------|---------|------------------|-
D|---------|---------|---5r--5-0--0-2r--|-
A|-0-2-3r--|--3-/-5r-|-5----------------|-
E|---------|---------|------------------|-
         C
I feel wonderful
   D               G         D       Em
Because I see the love light in your eyes
G|---------|---------|    |----------|
D|---------|---------|    |----------|
A|-0-x-3r--|--3-/-5r-| X2 |-5g-------|
E|---------|---------|    |-----3rrr>|
         C           D
And the wonder of it all
             C             D
Is that you just don't realize
            G >>        
How much I love you                

[Interlude]  >> G     D/F#  C  D (X2)
G|-----------|-----------|-----------|-------2r--||-
D|-------4r--|-----------|-----------|-2--4------||-
A|-----5-----|-5-\-3h----|-3-/-5h----|-----------||-  X2
E|-3r--------|-----------|-----------|-----------||-


[Verse 4]
G|-----------|-----------|-----------|-------2r--||-
D|-------4r--|-----------|-----------|-2--4------||-
A|-----5-----|-5-\-3h----|-3-/-5h----|-----------||-  X2
E|-3r--------|-----------|-----------|-----------||-
G                   D/F#
It's time to go home now
C                          D
And I've got an aching head
G                     D/F#
So I give her the car keys
C                   D
She helps me to bed

G|---------|---------|------------------|-
D|---------|---------|---5r--5-0--0-2r--|-
A|-0-2-3r--|--3-/-5r-|-5----------------|-
E|---------|---------|------------------|-
C              D
And then I tell her
G       D             Em
As I turn out the light

[Outro]
G|---------|---------|---------||---------|-
D|---------|---------|---------||-0-2rrr--|-
A|-0-2-3r--|--3--5r--|-5-------||---------|-
E|---------|---------|----3rrr-||---------|-
          C                 D           G     D  Em Em/D
I say my darling, you were wonderful tonight

G|---------|---------|--- ----------|-----------|-----------|-------2r--|
D|---------|---------|--- ------4r--|-----------|-----------|-2--4------|
A|-0-2-3r--|--3--5r--|-5- ----5-----|-5-\-3h----|-3-/-5h----|-----------|  
E|---------|---------|--- -3r-------|-----------|-----------|-----------|
       C                 D           G >  

> G   D/F#  C  D  G  D/F#  
G|-----------|-----------|-----------|-------2r--||---------|-
D|-------4r--|-----------|-----------|-2--4------||-5rrrr---|-
A|-----5-----|-5-\-3h----|-3-/-5h----|-----------||---------|-  
E|-3r--------|-----------|-----------|-----------||---------|-

C  D  G
Oh my darling, you were wonderful tonight

            
            
Suggest correction
Creating personal tab
Creating personal tab
You can edit any tab online and save it as your Personal.

You can edit, replace or remove any tab part or add personal notes – all changes will be seen only by you.

Personal tabs can be accessed anytime from any device, even offline.
Learn more »
Give kudos to tab author, rate the tab!
1 2 3 4 5
comments
print report bad tab
1 comment total.
0 reply
karl.chr 243 Sep 23, 2016 01:57 PM

This is sadly not correct, I do not hear any usage of the E string in the song. And it is certainly not easier to understand than any of the previous attempts at writing the tab for this marvelous song.

guest
You may want to rate the tab now too:
select rating
Wanna post a correction for this tab? Suggest correction