Oops, an error
Loading. Please wait.

Rock And Roll chords

version 1
version 1

Whole song

232,764 views 18 this week
5 commentsread comments
1 2 3 4 5
x 11
add to favorites
×
Save as Personal and add changes to this tab that will be seen only by you. Learn more ›
×
You can save this tab as Personal to edit and correct it or add notes. All changes will be seen only by you. Learn more »
launch autoscroll
font size
0
reset
transpose
0
reset
simplify chords
display chords
guitar tuner
edit
Autoscroll
slow
fast
+/-
esc
set tempo
stop
Strumming
There is no strumming pattern for this song yet. and get +5 IQ
Rock and Roll - Eric Hutchinson
Tabbed by:Steve Steinhardt
Email:stevenstreet483@msn.com
Tuning: Capo 3rd fret

[Verse/intro]
G E7
He’s been waiting around for the weekend
C
Figuring which club to sneak in
Asus9
Fancy drinks and fifty-dollar cover charge
G E7
Lately it’s been a big hassle
C
Heineken and New Castle
Asus9
So make sure he’s fitting in and living large

[Pre-Chorus]
Bm Am C
Disregard the lies that he will tell
D
and what he’s probably like 'cause
Bm Am C
It's not hard his charm is gonna
D
Get him through the night

[Chorus]
C9 G
If he wants to rock he rocks
D G
If he wants to roll he rolls
C9 G
He can roll with the punches
D G
Long as he feels like he’s in control
C9 G
If he wants to stay he stays
D G
If he wants to go he goes
C9 G
He doesn’t care how he gets there
D G
Long as he gets somewhere he knows oh no
C9 G D G
ah na na na na na na na na na na na
ah na na na na na na na na na na na

[Verse 2]
G E7
See her heavy make up and cut t-shirt
C
Every girl out wants to be her
Asus9
But they look the same already why adjust
G E7
Reading the magazine secrets
C
Forgetting the topical regrets
Asus9
If she comes home all alone the nights a bust

[pre chorus]
Bm Am C
It’s a must the swivel in her hips
D
And the look she gives
Bm Am C
It’s all her trust if only in the morning
D
She knew where she lived

[CHORUS]

[Bridge]
Am F
And in a wink they’re on the brink
G
From drink to drink and at the bar
C Am
With cash to blow
Am F
From shot to shot it’s getting hot
G
Advance the plot to see how far
C Am
It’s gonna go
F
All depends so ditch the friends
G
And grab a cab
C Am
Another chance for cheap romance
F
Doesn’t count cause the room is spinning
G C Am
Nothing to lose tonight they both are winning
F D
And they fall in love as they fall in bed
They sing

[CHORUS](till close)...
walk down lick for bridge

   C  Cadd9   Am
e|-0----0-----0-------------------------------------------------|
B|-1----1-----1-------------------------------------------------|
G|-0----0-----2-------------------------------------------------|
D|-2----0-----2-------------------------------------------------|
A|-3----2-----0-------------------------------------------------|
E|-0----0-----0-------------------------------------------------|

    Asus9   C9    E7
e|-----3----3-----0---------------------------------------------------------------|
B|-----2----3-----0---------------------------------------------------------------|
G|-----2----0-----1---------------------------------------------------------------|
D|-----2----2-----0---------------------------------------------------------------|
A|-----0----3-----2---------------------------------------------------------------|
E|-----0----0-----0---------------------------------------------------------------|

            
            
Suggest correction
Creating personal tab
Creating personal tab
You can edit any tab online and save it as your Personal.

You can edit, replace or remove any tab part or add personal notes – all changes will be seen only by you.

Personal tabs can be accessed anytime from any device, even offline.
Learn more »
comments
print report bad tab
5 comments total. Showing first comments.
-1 reply
dbatch 73 Jun 18, 2008 01:12 PM

lazy tab! put the chords in the right place

+2 reply
the_bear_shark 240 Aug 12, 2008 12:16 PM

I think the correct chord is B7 and not E7. (B7 according to the capo position)

-2 reply
klawandsnider 10 Jan 04, 2009 02:11 PM

Could someone please post the tab that has the finger picking and pulls on it too

guest
You may want to rate the tab now too:
select rating
Wanna post a correction for this tab? Suggest correction