Oops, an error
Loading. Please wait.

Watching You Watch Him Tab

217 views 1 this week
no commentswrite comment
1 2 3 4 5
3 more votes to show rating
add to favorites
launch autoscroll
font size
0
reset
how to read this tab
guitar tuner
×
Best way to learn
"Watching You Watch Him"
Autoscroll
slow
fast
+/-
esc
set tempo
stop
Author
Difficulty
  follow
intermediate
-------------------------------------------------------------------------------
                             SONG NAME - Band Name
-------------------------------------------------------------------------------
Tabbed by:
E-mail:

Tuning:

e|-----------------|---------3--3--3------------------------------------------|
B|--------------1--|3--3--3--3--3--3------------------------------------------|
G|--------0-2-4----|---------0--0--0------------------------------------------|
D|--0-2-4----------|---------0--0--0------------------------------------------|
A|-----------------|---------2--2--2------------------------------------------|
E|-----------------|---------3--3--3------------------------------------------|

e|-0---------------|--0-0----3-3--|--2-2-3-3----------------------------------|
B|---1-3-0-1---0---|1-1-1--0-0-0--|--3-3-3-3----------------------------------|
G|-----------2-----|--0-0----0-0--|2-2-2-2-2----------------------------------|
D|-----------------|--------------|-------------------------------------------|
A|-----------------|--------------|-------------------------------------------|
E|-----------------|--------------|-------------------------------------------|

      x   x   x   x   x   x   x   x    x   x   x   x   x   x   x   x  
e|---|------------0--|------------0-2-|3---3----------|---------(5)------------|
B|-0-|1-0---------1--|--------1-3-----|----1----------|------------------------|
G|---|----2-0-2---2--|--0-2-4---------|----0----------|------------------------|
D|---|------------2--|4---------------|----2----------|------------------------|
A|---|------------0--|----------------|----3----------|------------------------|
E|---|------------x--|----------------|----x----------|------------------------|

          x   x   x   x    x   x   x   x
e|-5---5-|2-3-0-2---0-----|----2-----------|----------------------------------|
B|-------|--------3---0-1-|3---3---3-1-0---|----------------------------------|
G|-------|----------------|----2---------2-|0---------------------------------|
D|-------|----------------|----0-----------|----------------------------------|
A|-------|----------------|----0-----------|----------------------------------|
E|-------|----------------|----x-----------|----------------------------------| 


************************************

| /   slide up
| \   slide down
| h   hammer-on
| p   pull-off
| ~   vibrato
| +   harmonic
| x   Mute note
| b   Bend
| pb  Pre-bend
| br  Bend release
| pbr Pre-bend release
| brb Bend release bend

************************************
Suggest correction
Give kudos to tab author, rate the tab!
1 2 3 4 5
comments
print report bad tab
guest
You may want to rate the tab now too:
select rating
Wanna post a correction for this tab? Suggest correction