Oops, an error
Loading. Please wait.
We have an official Cliffs Of Dover tab made by UG professional guitarists. Check out the tab »
×
42,923 views 45 this week
5 commentsread comments
1 2 3 4 5
x 25
add to favorites
×
Save as Personal and add changes to this tab that will be seen only by you. Learn more ›
×
You can save this tab as Personal to edit and correct it or add notes. All changes will be seen only by you. Learn more »
launch autoscroll
font size
0
reset
guitar tuner
backing track
0:00
0:00
edit
Autoscroll
slow
fast
+/-
esc
set tempo
stop
Author
Difficulty
Unregistered
intermediate
Cliffs of Dover - Eric Johnson
This is a pretty good song that I just love to play it, so please, to 
anyone who's reading this, please rate.

Tempo: 190 (or just 95)
G|----------------------|
D|----------------------|
A|----------------------|
E|-----3------33-3-333--|

[Verse] (Repeat 4x)
G|---------------------|---------------------|
D|-*-------------------|--------------------*|
A|-*-------------------|--3333-333-5555-555-*|
E|----3333-333-3333-333|---------------------|

[Chorus]
G|--------------------------------|-----------------------------------|
D|--------------------------------|-----------------------------------|
A|--0000-000-5555-555-------22----|-0000-000-5555-555--2-2------------|
E|--------------------3333-3--0000|-------------------3-3--00223344---|

G|--------------------------------|----------------------------------|
D|--------------------------------|----------------------------------|
A|--0000-000-5555-555-------22----|-0000-000-5555-555---------/7-5---|
E|--------------------3333-3--0000|-------------------3333-33--------|

[Pre-verse Riff] #2
G|---------------|----------------------|
D|---------------|----------------------|
A|---------------|----------------------|
E|--3-----3------|-/15-----\3---333-333-|

[Bridge]                                               (Repeat 3x)
G|--------------|--------------------------|---------------------|----------------|
D|--------------|--------------------------|-*------------------*|----------------|
A|--------------|------------------/5-3-5-3|-*--------/5-3--5-3-*|----------------|
E|--3-----3-----|-/15------\33-33----------|---33-33-------------|--0--------0----|

G|--------------------|
D|--------------------|
A|-------3------5--5--|
E|--3-----------------|

[Guitar Solo]
G|--------------------------------|--------------------------------|
D|--------------------------------|--------------------------------|
A|--0000-000-5555-555-------2-----|--0000-000-5555-555----2--------|
E|--------------------3333-3--0000|--------------------3------0234-|(Repeat 2x)

G|---------------------------------|-----------------------------------|
D|-*-------------------------------|----------------------------------*|
A|-*-0000-000-5555-555-------2-----|--0000-000-5555-555--2-2----------*|
E|---------------------3333-3--0000|--------------------3-3--00223344--|

G|----------------------------------------|
D|----------------------------------------|
A|--0000-000--2222-222----------5555-555--|
E|---------------------0000-000-----------|

[Song Order] Guitar Intro Cadenza (no bass)
[Pre-verse]
[Riff #1]
[Verse]
[Chorus]
[Pre-verse]
[Riff #2]
[Verse]
[Chorus]
[Bridge]
[Guitar Solo]
[Chorus]
[Pre-verse]
[Riff #2]
[Outro Guitar Cadenza] (no bass)

************************************

| /  Slide up
| \  Slide down

************************************

            
            
Suggest correction
Creating personal tab
Creating personal tab
You can edit any tab online and save it as your Personal.

You can edit, replace or remove any tab part or add personal notes – all changes will be seen only by you.

Personal tabs can be accessed anytime from any device, even offline.
Learn more »
comments
print report bad tab
5 comments total. Showing first comments.
0 reply
Sixx66FeetUnder 62 Apr 09, 2008 09:08 AM

Dude! This is perfect! Excellent job! Me and my band love to play this but what I was playing always sounded off to me. Now it sounds like a real, quality cover! Thanks a lot!

0 reply
Swordacool 10 Aug 16, 2008 10:03 AM

Dude, great tab!!

0 reply
subspace 10 Jan 17, 2009 12:21 PM

it's perfect in every beat.

guest
Wanna post a correction for this tab? Suggest correction