Oops, an error
Loading. Please wait.

Cliffs Of Dover Bass Tab

version 2
version 2
2,773 views 1 this week
no commentswrite comment
1 2 3 4 5
2 more votes to show rating
add to favorites
launch autoscroll
font size
0
reset
guitar tuner
Autoscroll
slow
fast
+/-
esc
set tempo
stop
Help us to improve Ultimate-Guitar.com Take our survey!
×
Author
Difficulty
intermediate
This is my first bass tab so far

INTRO

G-----------------------------------------------------|
D--5--------------------------------------------------|
A-----------------------------------------------------|
E--3------------------------------------3--3--33------|

VERSE 1

G-----------------------------------------------------|
D-----------------------------------------------------|
A--------------------------3-33-33-33-35-55-55-55-5---|    x4
E--3-33-33-33-33-33-33-33-3---------------------------|

CHORUS 1

G-----------------------------------------------------|
D-----------------------------------------------------|
A--0-00-00-00-05-55-55-55-5-----------2---------------|
E--------------------------3-33-33-33--0-00-00-00-0---|

G-----------------------------------------------------|
D-----------------------------------------------------|
A--0-00-00-00-05-55-55-55-5---2-----2-----------------|
E--------------------------3-----3-----0--2--3--5-----|

G-----------------------------------------------------|
D-----------------------------------------------------|
A--0-00-00-00-05-55-55-55-5-----------2---------------|
E--------------------------3-33-33-33--0-00-00-00-0---|


G-----------------------------------------------------|
D-----------------------------------------------------|
A--0-00-00-00-05-55-55-55-5---2-----2--7-----5--------|
E--------------------------3-----3--------------------|

TRANSITION 1

G-----------------------------------------------------|
D--5--------------------------------------------------|
A-----------------------------------------------------|
E--3-----------------------3--------------------------|

G-----------------------------------------------------|
D-----------------------------------------------------|
A-----------------------------------------------------|
E--3/15--------------------15/3--------------3--3--33-|

VERSE 2

G-----------------------------------------------------|
D-----------------------------------------------------|
A--------------------------3-33-33-33-35-55-55-55-5---|    x4
E--3-33-33-33-33-33-33-33-3---------------------------|

CHORUS 2

G-----------------------------------------------------|
D-----------------------------------------------------|
A--0-00-00-00-05-55-55-55-5-----------2---------------|
E--------------------------3-33-33-33--0-00-00-00-0---|

G-----------------------------------------------------|
D-----------------------------------------------------|
A--0-00-00-00-05-55-55-55-5---2-----2-----------------|
E--------------------------3-----3-----0--2--3--5-----|

G-----------------------------------------------------|
D-----------------------------------------------------|
A--0-00-00-00-05-55-55-55-5-----------2---------------|
E--------------------------3-33-33-33--0-00-00-00-0---|


G-----------------------------------------------------|
D-----------------------------------------------------|
A--0-00-00-00-05-55-55-55-5---2-----2--7-----5--------|
E--------------------------3-----3--------------------|

TRANSITION 2

G-----------------------------------------------------|
D--5--------------------------------------------------|
A-----------------------------------------------------|
E--3-----------------------3--------------------------|

G-----------------------------------------------------|
D-----------------------------5--------5--------------|
A-----------------------------------------------------|
E--3/15-----------------15/3------3-3-----3-----------|
                           ^ breakdown starts here
INTERLUDE/BREAKDOWN

G---------------------|-------------------------------|
D------5---5---5---5--|------5------5-----------------|
A--3h5---3---5---3----|-------------------------------|
E---------------------|---3-----3-3---3---------------|

G---------------------|-------------------------------|
D------5---5---5---5--|------5------5-----------------|
A--3h5---3---5---3----|-------------------------------|
E---------------------|---3-----3-3---3---------------|

G--5-------/7--------/9-------/10---------------------|
D-----------------------------------------------------|
A--3-------/5--------/7-------/8----------------------|
E-----------------------------------------------------|

G-----------------------------------------------------|
D-----5------5--------5------5------------------------|
A-----------------------------------------------------|
E--3-----3-3---3---3-----3-3---3----------------------|

G--------5-----------5---------------/7---------------|
D--5-----------5--------------------------------------|
A---------------------------3--------/5---------------|
E--3-----------3--------------------------------------|

SOLO

G-----------------------------------------------------|
D-----------------------------------------------------|
A--0-00-00-00-05-55-55-55-5-----------2---------------|
E--------------------------3-33-33-33--0-00-00-00-0---|

G-----------------------------------------------------|
D-----------------------------------------------------|
A--0-00-00-00-05-55-55-55-5---2-----2-----------------|
E--------------------------3-----3-----0--2--3--5-----|

G-----------------------------------------------------|
D-----------------------------------------------------|
A--0-00-00-00-05-55-55-55-5-----------2---------------|
E--------------------------3-33-33-33--0-00-00-00-0---|

G-----------------------------------------------------|
D-----------------------------------------------------|
A--0-00-00-00-05-55-55-55-5---2-----2-----------------|
E--------------------------3-----3-----0--2--3--5-----|

G-----------------------------------------------------|
D-----------------------------------------------------|
A--0-00-00-00-05-55-55-55-5-----------2---------------|
E--------------------------3-33-33-33--0-00-00-00-0---|

G-----------------------------------------------------|
D-----------------------------------------------------|
A--0-00-00-00-05-55-55-55-5---2-----2-----------------|
E--------------------------3-----3-----0--2--3--5-----|

G-----------------------------------------------------|
D-----------------------------------------------------|
A--0-00-00-00-05-55-55-55-5-----------2---------------|
E--------------------------3-33-33-33--0-00-00-00-0---|

G------------------------------------------/9---------|
D-----------------------------------------------------|
A--0-00-00-00-05-55-55-55-55---------5-----/7---------|
E-------------------------------3---------------------|

CHORUS 3

G-----------------------------------------------------|
D-----------------------------------------------------|
A--0-00-00-00-05-55-55-55-5-----------2---------------|
E--------------------------3-33-33-33--0-00-00-00-0---|

G-----------------------------------------------------|
D-----------------------------------------------------|
A--0-00-00-00-05-55-55-55-5---2-----2-----------------|
E--------------------------3-----3-----0--2--3--5-----|

G-----------------------------------------------------|
D-----------------------------------------------------|
A--0-00-00-00-05-55-55-55-5-----------2---------------|
E--------------------------3-33-33-33--0-00-00-00-0---|


G-----------------------------------------------------|
D-----------------------------------------------------|
A--0-00-00-00-05-55-55-55-5---2-----2--7-----5--------|
E--------------------------3-----3--------------------|

OUTRO

G-----------------------------------------------------|
D--5--------------------------------------------------|
A-----------------------------------------------------|
E--3------------------------3-------------------------|

G-----------------------------------------------------|
D-----------------------------------------------------|
A-----------------------------------------------------|
E--3/15-------------------15/3------------------------|

G-----------------------------------------------------|
D--5--------------------------------------------------|
A-----------------------------------------------------|
E--3--------------------------------------------3-----|
   ^ hold  this  note  until  right  about here ^

im a little unsure about a few chords but the rest is right.
Keep Playing!
Guitarded25x (trying to change screen names)
Suggest correction
Give kudos to tab author, rate the tab!
1 2 3 4 5
comments
print report bad tab
guest
You may want to rate the tab now too:
select rating
Wanna post a correction for this tab? Suggest correction