Oops, an error
Loading. Please wait.

Cliffs Of Dover Tab

version 7
22,005 views 45 this week
no commentswrite comment
1 2 3 4 5
x 9
add to favorites
launch autoscroll
font size
0
reset
how to read this tab
guitar tuner
Autoscroll
slow
fast
+/-
esc
set tempo
stop
Help us to improve Ultimate-Guitar.com Take our survey!
×
Author
Cliffs Of Dover (Eric Johnson)
This tab is just lem_ian's cliffs of dover gp5 tab, so I am not taking credit
for this.

     H         Q.      E
e|-----------15b------L--|
B|-----------------------|
G|-----------------------|
D|-----------------------|
A|-----------------------|
E|--0--------------------|

     E   E   E   E   E   E   Q
e|--15--12--14------12----------------|
B|--------------15------12--15brb~----|
G|------------------------------------|
D|------------------------------------|
A|------------------------------------|
E|------------------------------------|

     |----3---|
     E   E    E   S   S  S  S  S  S   S  S
e|--12---------------------12-15-14p-12----|
B|------15p--12------12-15--------------15-|
G|---------------14b-----------------------|
D|-----------------------------------------|
A|-----------------------------------------|
E|-----------------------------------------|

                  |---3--|  |---3---|  |--
     S  S  S   S  S  S   S  S   S   S  S
e|-----12----------------------------------|
B|--15----15p-12----15p-12-----15p-12------|
G|---------------14--------14b--------14br-|
D|-----------------------------------------|
A|-----------------------------------------|
E|-----------------------------------------|

        |-3-| |-3-|
    S S S S S S S S S S S S S S  S S S S
e|----5-7-6-5----------------------------|
B|--8---------8-5---5-7---5-3------------|
G|----------------7-----4-----4p-2---4-2-|
D|---------------------------------5-----|
A|---------------------------------------|
E|---------------------------------------|

    S S S S S S S S S S S S
e|--------------------------|
B|--------------------------|
G|--------------------------|
D|--5-2---5-2-----2-0-------|
A|------5-----5-2-----2-0---|
E|------------------------3-|

    Q    Q      Q    Q
e|------------------------|
B|-------8br----L---------|
G|------------------------|
D|------------------------|
A|------------------------|
E|--0---------------------|

    |--3--|
    E  E  E  S S S S  S S  S T   T E  S  S
e|----------------------7----8h-10-L--8----|
B|--------5------7-8-10---10------------12-|
G|-----------------------------------------|
D|-----7-------9---------------------------|
A|--3--------5-----------------------------|
E|-----------------------------------------|

     |---3---|   |---3---|
     E   E   E   E   E   E
e|---------------------------|
B|----------12----------13~--|
G|---------------------------|
D|------14----------14-------|
A|--10----------12-----------|
E|---------------------------|

     |---3---|   |---3---|
     E   E   E   E   E   E   S  S  S   S
e|----------------------------------------|
B|----------15----------17--------19-(19)-|
G|----------------------------------------|
D|------17----------17---------19---------|
A|--14----------15----------17------------|
E|----------------------------------------|

        P     P     P     P     P     P
     S  S  S  S  S  S  S  S  S  S  S  S  S
e|-----15----15----15----15----15----15----|
B|--19----------------------------17----19-|
G|--------19----------------17-------------|
D|--------------19----17-------------------|
A|-----------------------------------------|
E|-----------------------------------------|

        P     P     P     P     P     P
     S  S  S  S  S  S  S  S  S  S  S  S  S
e|-----15----15----15----15----15----15----|
B|--------------------17----19-------------|
G|--------------17----------------19----17-|
D|--19----17-------------------------------|
A|-----------------------------------------|
E|-----------------------------------------|

        P     P     P     P
     S  S  S  S  S  S  S  S  S  S  S  S  S
e|-----15----15----15----15----17-15----15-|
B|--19----------------17----19-------19----|
G|--------19----17-------------------------|
D|-----------------------------------------|
A|-----------------------------------------|
E|-----------------------------------------|

     |--3--|  |--3--|  |--3--|  |--3--|  |
     S  S  S  S  S  S  S  S  S  S  S  S  S
e|-----17-15-------------------------------|
B|--19-------19-15----17-15----------------|
G|-----------------17-------17-14----16-14-|
D|--------------------------------17-------|
A|-----------------------------------------|
E|-----------------------------------------|

     Q       S   S    E   Q    E  E
e|-----------------------------------|
B|--------<>18br-L-<>18b--L----------|
G|--------------------------------0--|
D|-----------------------------------|
A|-----------------------------------|
E|--15-------------------------------|

     E  E   E  E  E  E   E  E
e|-----------------------------|
B|---8------------8------------|
G|*-----7p--0--0-----9p--0--0--|
D|*----------------------------|
A|-----------------------------|
E|-----------------------------|

    E   E   E  E  E  E   E  E
e|------------------------------||
B|--8-------------8-------------||
G|-----11p--0--0-----9p--0--0--*||
D|-----------------------------*||
A|------------------------------||
E|------------------------------||

    E  E   E  E  E  E   E  E
e|----------------------------|
B|--8------------8------------|
G|-----7p--0--0-----9p--0--0--|
D|----------------------------|
A|----------------------------|
E|----------------------------|

    E  E   E  E  E  E   E  E
e|----------------------------|
B|--8------------8------------|
G|-----7p--0--0-----9p--0--0--|
D|----------------------------|
A|----------------------------|
E|----------------------------|

    E   E   E  E  Q    Q
e|--------------------------|
B|--8-------------8----L----|
G|-----11p--0--0------------|
D|--------------------------|
A|--------------------------|
E|--------------------------|

     Q.     E  Q    E  E
e|------------------7-----|
B|----------8--L----------|
G|--/7--------------------|
D|------------------------|
A|------------------------|
E|------------------------|

     H        Q.     E
e|--10--------L----------|
B|---8--------L----------|
G|---0--------L------5s--|
D|-----------------------|
A|-----------------------|
E|-----------------------|

    E  E  E   E  H
e|--------7--10--L--------|
B|-----8------------------|
G|--7---------------------|
D|------------------------|
A|------------------------|
E|------------------------|

    H.           E  E
e|--8------------8-----|
B|--8------------------|
G|--5------------------|
D|---------------------|
A|---------------------|
E|---------------------|

     Q      E  E  Q.     E
e|--------------------------|
B|--10br----L--8--L---------|
G|-----------------------0--|
D|--------------------------|
A|--------------------------|
E|--------------------------|

    E  E   E  E  E  E   E  E
e|----------------------------|
B|--8------------8------------|
G|-----7p--0--0-----9p--0--0--|
D|----------------------------|
A|----------------------------|
E|----------------------------|

    E   E   E  E  Q.     E
e|--------------------------|
B|--8-------------8---------|
G|-----11p--0--0------------|
D|--------------------------|
A|--------------------------|
E|-----------------------8--|

    |----3----|
    Q    Q    Q    Q.     E
e|---------------------------|
B|--8--------------8---------|
G|-------7-------------------|
D|------------------------0--|
A|---------------------------|
E|------------8--------------|

    Q.     E   H
e|----------------------|
B|--8---------10--------|
G|----------------------|
D|---------0------------|
A|----------------------|
E|----------------------|

     H        E   E   E   E
e|--10--------L--------------|
B|---8--------L----------12--|
G|---0--------L------12------|
D|---------------12----------|
A|---------------------------|
E|---------------------------|

                   Vibrato + Artificial Ha
     E   E   E     E
e|------12--14----------------------------|
B|--15----------<>15----------------------|
G|----------------------------------------|
D|----------------------------------------|
A|----------------------------------------|
E|----------------------------------------|

     E   E   E   E   E   E  E   E
e|----------------------12-----------|
B|----------10--15~--L---------------|
G|------12---------------------14br--|
D|--10-------------------------------|
A|-----------------------------------|
E|-----------------------------------|

     E  Q     E   Q.     E
e|--------------------------|
B|--------------------------|
G|---L--L----12~--L------0--|
D|--------------------------|
A|--------------------------|
E|--------------------------|

    E  E   E  E  E  E   E  E
e|----------------------------|
B|--8------------8------------|
G|-----7p--0--0-----9p--0--0--|
D|----------------------------|
A|----------------------------|
E|----------------------------|

    E   E   E  E  H
e|-------------------------|
B|--8-------------8--------|
G|-----11p--0--0-----------|
D|-------------------------|
A|-------------------------|
E|-------------------------|

    ^
    W
e|-------------------|
B|-------------------|
G|--5----------------|
D|--5----------------|
A|--3----------------|
E|-------------------|

    ^
    H        E   E    E    E
e|----------------------------|
B|----------------------------|
G|--7-------------------------|
D|--7-----------14s--12S--14--|
A|--5-------------------------|
E|----------------------------|

     E   E   E   E    E   E   E   E
e|------------------------------------|
B|------------------------------------|
G|--17------14--17S--16------12--16S--|
D|------14---------------12-----------|
A|------------------------------------|
E|------------------------------------|

     E   E   E   E   E   E   E   E
e|-----------------------------------|
B|-----------------------------------|
G|--14------11--14------11--12--14S--|
D|------12----------12---------------|
A|-----------------------------------|
E|-----------------------------------|

     E   E   E   E    E   E   Q
e|---------------------------------|
B|---------------------------------|
G|--16------12--16S--14------11----|
D|------12---------------12--------|
A|---------------------------------|
E|---------------------------------|

     E   E   E   E   H
e|-----------------------------|
B|-----------------------------|
G|--12--11---------------------|
D|----------14--12-------------|
A|------------------14~--------|
E|-----------------------------|

     E   E   E   E    E   E   E   E
e|------------------------------------|
B|------------------------------------|
G|--17------14--17S--16------12--16S--|
D|------14---------------12-----------|
A|------------------------------------|
E|------------------------------------|

     E   E   E   E   E   E   E   E
e|------------------10---------------|
B|-----------------------------------|
G|--14------11--14----------11--14S--|
D|------12--------------12-----------|
A|-----------------------------------|
E|-----------------------------------|

     E   E   E   E    E   E   Q
e|---------------------------------|
B|---------------------------------|
G|--16------12--16S--14------11----|
D|------12---------------12--------|
A|---------------------------------|
E|---------------------------------|

     E   E   Q     H
e|------------------------------|
B|----------------15brb~--------|
G|--12--11----------------------|
D|----------14------------------|
A|------------------------------|
E|------------------------------|

     E   E   E   E    E   E   E   E
e|------------------------------------|
B|------------------------------------|
G|--17------14--17S--16------12--16S--|
D|------14---------------12-----------|
A|------------------------------------|
E|------------------------------------|

     E   E   E   E   E   E   E   E
e|-----------------------------------|
B|-----------------------------------|
G|--14------11--14------11--12--14S--|
D|------12----------12---------------|
A|-----------------------------------|
E|-----------------------------------|

     E   E   E   E    E   E   E  E
e|----------------------------------|
B|----------------------------------|
G|--16------12--16S--14------11-----|
D|------12---------------12---------|
A|----------------------------------|
E|----------------------------------|

     E   E   E   E   Q.      E
e|------------------------------|
B|------------------------------|
G|--12--11----------------------|
D|----------14--12--------------|
A|------------------14------12--|
E|------------------------------|

     E   E   E   E    E   E   E   E
e|------------------------------------|
B|------------------------------------|
G|--17------14--17S--16------12--16S--|
D|------14---------------12-----------|
A|------------------------------------|
E|------------------------------------|

     E   E   E   E   E   E   E   E
e|------------------10---------------|
B|-----------------------------------|
G|--14------11--14----------11--14S--|
D|------12--------------12-----------|
A|-----------------------------------|
E|-----------------------------------|

     E   E   E   E    E   E   E  E
e|----------------------------------|
B|----------------------------------|
G|--16------12--16S--14------11-----|
D|------12---------------12---------|
A|----------------------------------|
E|----------------------------------|

     E   E  E  E  E  E  E  E
e|-----------------------------|
B|-------------------------7S--|
G|--12--11--9-----------7------|
D|-------------9--7--7---------|
A|-----------------------------|
E|-----------------------------|

    E  E   E  E  E  E   E  E
e|----------------------------|
B|--8------------8------------|
G|-----7p--0--0-----9p--0--0--|
D|----------------------------|
A|----------------------------|
E|----------------------------|

    E   E   E  E  H
e|-------------------------|
B|--8-------------8--------|
G|-----11p--0--0-----------|
D|-------------------------|
A|-------------------------|
E|-------------------------|

     Q.      E  E   E   Q
e|--14------17---------12----|
B|---------------------------|
G|---------------------------|
D|-----------------12--------|
A|---------------------------|
E|---------------------------|

                       |---3---|
    E   S S  Q    Q    E   E   E
e|--L--10-8------------7----------|
B|----------10----L-------10p--8--|
G|--------------------------------|
D|--------------------------------|
A|--------------------------------|
E|--------------------------------|

    Q.     E  E  E   E  E
e|-------------------------|
B|------------8------------|
G|--7------0-----9p--0--0--|
D|-------------------------|
A|-------------------------|
E|-------------------------|

    E   E   E  E  Q    E   E
e|----------------------------|
B|--8-------------8-----------|
G|-----11p--0--0--------------|
D|------------------------12--|
A|----------------------------|
E|----------------------------|

     E   E   E   E  H
e|----------14--15--L--------|
B|------15-------------------|
G|--14-----------------------|
D|---------------------------|
A|---------------------------|
E|---------------------------|

      Q.     E  Q    E  E
e|-------------------7-----|
B|-----------8--L----------|
G|--5g7--------------------|
D|-------------------------|
A|-------------------------|
E|-------------------------|

     H        E      Q     E
e|--10--------L---------------|
B|---8--------L---------------|
G|---0--------L-----------12--|
D|---------------10g12--------|
A|----------------------------|
E|----------------------------|

     E   E   E   E   H
e|----------12--14-------------|
B|--12--15----------15~--------|
G|-----------------------------|
D|-----------------------------|
A|-----------------------------|
E|-----------------------------|

     Q     E   E   E   E  E   E
e|------------10h--L--12----------|
B|--------------------------------|
G|--------12-----------------12h--|
D|--10----------------------------|
A|--------------------------------|
E|--------------------------------|

     |---3--|
     E   E  E  E   E  Q.     E
e|------------------------------|
B|------------------------------|
G|--14~--L--L--L--12--L------0--|
D|------------------------------|
A|------------------------------|
E|------------------------------|

    E  E   E  E  E  E   E  E
e|----------------------------|
B|--8------------8------------|
G|-----7p--0--L-----9p--0--0--|
D|----------------------------|
A|----------------------------|
E|----------------------------|

    E   E   E  E  E  E  E  E
e|-------------------------7--|
B|--8----------8--------8-----|
G|-----11p--0--------9--------|
D|----------------------------|
A|----------------------------|
E|----------------------------|

     E   E  E  E   E  E  E  E
e|--10p--8-----8p--7-----------|
B|--------------------8--------|
G|----------7------------9--7--|
D|-----------------------------|
A|-----------------------------|
E|-----------------------------|

    Q.       E   E   E   E   E
e|--------------------------14--|
B|--8~--------------15--17------|
G|--------------14--------------|
D|----------12------------------|
A|------------------------------|
E|------------------------------|

    Q     E   E  E   E   E   E
e|--L-------------------14--17--|
B|-------17--15--L--17----------|
G|------------------------------|
D|------------------------------|
A|------------------------------|
E|------------------------------|

    E   E   E   E  E   E   E  E
e|--L--14-----------------15-----|
B|---------17--15--L--17---------|
G|-------------------------------|
D|-------------------------------|
A|-------------------------------|
E|-------------------------------|

     Q      E   E      Q.     E
e|--17br----L---------------------|
B|-------------18brb~--L------8h--|
G|--------------------------------|
D|--------------------------------|
A|--------------------------------|
E|--------------------------------|

     Q.      E  Q.     E
e|------------------------|
B|--10~------8--L---------|
G|---------------------0--|
D|------------------------|
A|------------------------|
E|------------------------|

    E  E   E  E  E  E   E  E
e|----------------------------|
B|--8------------8------------|
G|-----7p--0--0-----9p--0--0--|
D|----------------------------|
A|----------------------------|
E|----------------------------|

    E   E   E  E  H
e|-------------------------|
B|--8-------------8--------|
G|-----11p--0--0-----------|
D|-------------------------|
A|-------------------------|
E|-------------------------|

    W
e|--8----------------|
B|--8----------------|
G|--5----------------|
D|-------------------|
A|-------------------|
E|-------------------|

     H        E   E    E    E
e|-----------------------------|
B|-----------------------------|
G|-----------------------------|
D|--12--------L--14s--12s--14--|
A|--12--------L----------------|
E|--10--------L----------------|

     E   E   E   E    E   E   E   E
e|------------------------------------|
B|------------------------------------|
G|--17------14--17S--16------12--16S--|
D|------14---------------12-----------|
A|------------------------------------|
E|------------------------------------|

     E   E   E   E   E   E   E   E
e|-----------------------------------|
B|-----------------------------------|
G|--14------11--14------11--12--14S--|
D|------12----------12---------------|
A|-----------------------------------|
E|-----------------------------------|

     E   E   E   E    E   E   Q
e|---------------------------------|
B|---------------------------------|
G|--16------12--16S--14------11----|
D|------12---------------12--------|
A|---------------------------------|
E|---------------------------------|

     E   E   E   E   Q.       E
e|-------------------------------|
B|-------------------------------|
G|--12--11-----------------------|
D|----------14--12---------------|
A|------------------14~------12--|
E|-------------------------------|

     E   E   E   E    E   E   E   E
e|------------------------------------|
B|------------------------------------|
G|--17------14--17S--16------12--16S--|
D|------14---------------12-----------|
A|------------------------------------|
E|------------------------------------|

     E   E   E   E   E   E   E   E
e|------------------10--------------|
B|----------------------------------|
G|--14------11--14----------11--14--|
D|------12--------------12----------|
A|----------------------------------|
E|----------------------------------|

                           |---3---|
     E   E   E   E   Q     E   E   E
e|--------------14--15----------------|
B|----------15------------------------|
G|------14----------------------------|
D|--12----------------------------14--|
A|------------------------14--17------|
E|------------------------------------|

     |---3---|   |---3---|
     E   E   E   E   E   E   H
e|------------------15--19-------------|
B|----------15--17----------17~--------|
G|------16-----------------------------|
D|--17---------------------------------|
A|-------------------------------------|
E|-------------------------------------|

     E   E   E   E    E   E   E   E
e|------------------------------------|
B|------------------------------------|
G|--17------14--17S--16------12--16S--|
D|------14---------------12-----------|
A|------------------------------------|
E|------------------------------------|

     E   E   E   E   E   E   E   E
e|-----------------------------------|
B|-----------------------------------|
G|--14------11--14------11--12--14S--|
D|------12----------12---------------|
A|-----------------------------------|
E|-----------------------------------|

     E   E   E   E    E   E   E  E
e|----------------------------------|
B|----------------------------------|
G|--16------12--16S--14------11-----|
D|------12---------------12---------|
A|----------------------------------|
E|----------------------------------|

     E   E   E   E   Q.      E
e|------------------------------|
B|------------------------------|
G|--12--11----------------------|
D|----------14--12--------------|
A|------------------14------12--|
E|------------------------------|

     E   E   E   E    E   E   E   E
e|------------------------------------|
B|------------------------------------|
G|--17------14--17S--16------12--16S--|
D|------14---------------12-----------|
A|------------------------------------|
E|------------------------------------|

     E   E   E   E   E   E   E   E
e|------------------10---------------|
B|-----------------------------------|
G|--14------11--14----------11--14S--|
D|------12--------------12-----------|
A|-----------------------------------|
E|-----------------------------------|

     E   E   E   E    E   E   E  E
e|----------------------------------|
B|----------------------------------|
G|--16------12--16S--14------11-----|
D|------12---------------12---------|
A|----------------------------------|
E|----------------------------------|

     E   E  E  E  E  E  E  E
e|----------------------------|
B|-------------------------7--|
G|--12--11--9-----------7-----|
D|-------------9--7--7--------|
A|----------------------------|
E|----------------------------|

     Q    E   E  Q    E   E
e|----------------------------|
B|---8----8-----------8-------|
G|---0----L---L--L----L---L---|
D|--12-------10--L-------10h--|
A|----------------------------|
E|----------------------------|

     E  E  E   E  E  E   Q
e|----------------------------|
B|---------8------------------|
G|---L--0--L---L--L--L---L----|
D|--12--------10--L-----10----|
A|----------------------------|
E|----------------------------|

     Q    E   E  Q    E   E
e|----------------------------|
B|---8----8-----------8-------|
G|---0----L---L--L----L---L---|
D|--12-------10--L-------10h--|
A|----------------------------|
E|----------------------------|

     E  E  E   E  Q     Q
e|---------------------------|
B|---------8-----------------|
G|---L--0--L---L--L-----L----|
D|--12--------10--L----10----|
A|---------------------------|
E|---------------------------|

     |---3---|   |---3---|   |-----3----|
     E   E   E   E   E   E   E      E   E
e|--14--17--12----------------------------|
B|--------------15--12------15br~--15--12-|
G|----------------------14----------------|
D|----------------------------------------|
A|----------------------------------------|
E|----------------------------------------|

     |---3--|   |---3--|  |---3--|   |---3
     E   E  E   E  E   E  E   E  E   E  E
e|----------------------------------------|
B|--10------------------------------------|
G|------11--9---------11--9---------------|
D|-------------12--9---------12--9--------|
A|----------------------------------12--9-|
E|----------------------------------------|

    Q    E   E  Q    E   E
e|---------------------------|
B|-------8-----------8-------|
G|--0----L---L--L----L---L---|
D|--0-------10--L-------10h--|
A|---------------------------|
E|---------------------------|

     E  E  E   E  Q     Q
e|---------------------------|
B|---------8-----------------|
G|---L--0--L---L--L-----L----|
D|--12--------10--L----10----|
A|---------------------------|
E|---------------------------|

    E  E  E  E  E   Q     T     S.
e|--------------------------------|
B|-----------8--L--10----10pbr-10-|
G|--7--7--9-----------------------|
D|--------------------------------|
A|--------------------------------|
E|--------------------------------|

    E  Q     E  E  Q.
e|-----------------7------|
B|--L--8----10--L---------|
G|------------------------|
D|------------------------|
A|------------------------|
E|------------------------|

    Q    E   E  Q    E   E
e|---------------------------|
B|--8----8-----------8-------|
G|--0----L---L--L----L---L---|
D|--0-------10--L-------10h--|
A|---------------------------|
E|---------------------------|

     Q    E   E  Q     Q
e|--------------------------|
B|--------8-----------------|
G|---L----L---L--L-----L----|
D|--12-------10--L----10----|
A|--------------------------|
E|--------------------------|

    E  E  E  E  E   E  S S  S   S
e|-----------------------8-12p-10-|
B|-----------8--L--10--L----------|
G|--7--7--9-----------------------|
D|--------------------------------|
A|--------------------------------|
E|--------------------------------|

    Q    S S  S S Q    E  E
e|--L----L-8p-7--------------|
B|--------------8-L----------|
G|---------------------9--7--|
D|---------------------------|
A|---------------------------|
E|---------------------------|

    H          Q    E   E
e|--------------------------|
B|--8~--------------8-------|
G|-------------0----L---L---|
D|------------10-------10h--|
A|--------------------------|
E|--------------------------|

     E   E   E   E  Q     E  E
e|------------------------------|
B|-----------8------------------|
G|---L---L---L---L--L-----L--L--|
D|--12--10--12--10--L----10-----|
A|------------------------------|
E|------------------------------|

    E  E  E  E  E   Q     T     S.
e|--------------------------------|
B|-----------8--L--10----10pbr-10-|
G|--7--7--9--L--L---L-----L-----L-|
D|--------------------------------|
A|--------------------------------|
E|--------------------------------|

    E  Q     E  E  E  Q
e|-----------------7-------|
B|--L--8----10--L----------|
G|--L--L-----L--L--L-------|
D|-------------------------|
A|-------------------------|
E|-------------------------|

     Q    E   E  Q    E   E
e|--10------------------------|
B|---8----8-----------8-------|
G|---0----L---L--L----L---L---|
D|---0-------10--L-------10h--|
A|----------------------------|
E|----------------------------|

     E  E  E   E  E   Q    E
e|----------------------------|
B|---------8------------------|
G|---L--0--L---L--L---L----L--|
D|--12--------10--L--10-------|
A|----------------------------|
E|----------------------------|

     Q    E   Q    E  Q
e|-------------------------|
B|---8----8--------8-------|
G|---0----L---L----L--L----|
D|--12-------10-------L----|
A|-------------------------|
E|-------------------------|

    Q     E   E    E   E  E   E
e|-------------------------------|
B|-------12--10br--L-------------|
G|--L-----L---L----L--12--9--12--|
D|-------------------------------|
A|-------------------------------|
E|-------------------------------|

    E  E   E   E   E   E   E   E
e|--------------------------------|
B|--------10------10------10------|
G|-----0--------------------------|
D|------------10------10------12--|
A|--------------------------------|
E|--------------------------------|

    E   E   E   E    E   E  E   E
e|---------------------------------|
B|---------12--10br--L-------------|
G|----------------------12--9--12--|
D|-----10--------------------------|
A|---------------------------------|
E|---------------------------------|

    E  E   E   E   E   E   E   E
e|--------------------------------|
B|--------10------10------10------|
G|-----0--------------------------|
D|------------10------10------12--|
A|--------------------------------|
E|--------------------------------|

    E   E   E   E   E  E   E  E
e|-------------------------------|
B|---------12--10b--L--8--10-----|
G|-------------------------------|
D|-----10------------------------|
A|-------------------------------|
E|-------------------------------|

     E   E   E   E  E   E   E   E
e|-----------------------------10--|
B|------10--12--13--L--10--12--10--|
G|--------------12--L----------12--|
D|--12----------10--L--------------|
A|--10-----------------------------|
E|---8-----------------------------|

    E   E   E   E  Q    Q
e|--L------------------------|
B|--L--12--10----------------|
G|--L----------12--L---------|
D|-------------10------------|
A|---------------------------|
E|---------------------------|

    W
e|-------------------|
B|--8----------------|
G|--0----------------|
D|--0----------------|
A|-------------------|
E|-------------------|

     H.            E   E
e|------------------------|
B|--10--------------------|
G|---7--------------------|
D|---0----------------14--|
A|----------------12------|
E|------------------------|

     Guitar solo
     H.             E   E
e|-------------------------|
B|-------------------------|
G|--14~----------------12--|
D|-----------------14------|
A|-------------------------|
E|-------------------------|

     Q      E   E   Q     E   E
e|---------------------------10h--|
B|--------------------------------|
G|--14br----L--12~--L-------------|
D|-----------------------14-------|
A|--------------------------------|
E|--------------------------------|

     H          E   S   S  S   S  S  S
e|--12~--------10--12p-10--------10----|
B|------------------------12p-10----12-|
G|-------------------------------------|
D|-------------------------------------|
A|-------------------------------------|
E|-------------------------------------|

     |---3--|
     E   E  E   Q    E   E   E   E
e|----------------------------------|
B|--10------------------------------|
G|------12--9--12-----------14--17--|
D|----------------------14----------|
A|----------------------------------|
E|----------------------------------|

                    |-----3-----|
    E   E   E   E   Q     Q     Q
e|-----------------------------------|
B|-----15--17--17--20----19----20----|
G|--L--------------------------------|
D|-----------------------------------|
A|-----------------------------------|
E|-----------------------------------|

     |-----3-----|     |-----3-----|
     Q     Q     Q     Q     Q     Q
e|--------------------------17----------|
B|--19----------------19----------20----|
G|--------------17----------------------|
D|--------------------------------------|
A|--------17----------------------------|
E|--------------------------------------|

     H         E  E   Q
e|--------------------------|
B|--19b--------L--L--17~----|
G|--------------------------|
D|--------------------------|
A|--------------------------|
E|--------------------------|

     Q.      E  Q.     E
e|-------------------------|
B|-------------------------|
G|-------------------------|
D|---------------------5h--|
A|--15\---------7----------|
E|--15\--------------------|

              |-----3----|
    Q.     E  Q    Q     Q
e|----------------------------|
B|----------------------------|
G|----------------------------|
D|--7------L--7----9----10----|
A|----------------------------|
E|----------------------------|

    Q.       E   Q.       E
e|---------------------------|
B|--8~----------10~----------|
G|---------------------------|
D|----------12-----------14--|
A|---------------------------|
E|---------------------------|

     E   E   E   E   Q     E    E
e|---------------------------------|
B|--12------12--13--15----15h--17--|
G|---------------------------------|
D|------14-------------------------|
A|---------------------------------|
E|---------------------------------|

     Q     E    E   Q     Q
e|-----------------------------|
B|--15-------------------12----|
G|--------14s--12--12----------|
D|-----------------------------|
A|-----------------------------|
E|-----------------------------|

     Q     E   E  Q     Q
e|---------------------------|
B|---------------------------|
G|--14-----------------------|
D|--------14-----------------|
A|------------15--L----------|
E|---------------------15----|

     E   E   E   E   H
e|----------------------------|
B|--------------15~--L--------|
G|----------14----------------|
D|------12--------------------|
A|----------------------------|
E|--14------------------------|

     E   E   E   E   Q    Q
e|--------------14~--L----L----|
B|----------12-----------------|
G|-----------------------------|
D|--12--14---------------------|
A|-----------------------------|
E|-----------------------------|

     |---3---|   |---3---|
     E   E   E   E   E   E   Q      E   S
e|----------------------15--19~----15--19--|p
B|--------------15--17---------------------|
G|----------16-----------------------------|
D|--14--17---------------------------------|
A|-----------------------------------------|
E|-----------------------------------------|

     |---3---|   |---3---|   |---3---|
     E   E   E   E   E   E   E   E   E   S
e|--17--15---------------------------------|
B|----------17--15------17--15-------------|
G|------------------17----------17--14-----|
D|--------------------------------------17-|
A|-----------------------------------------|
E|-----------------------------------------|

               |----3---|
     E   S  S  E    E   E   S  S  S  S  S
e|----------------------------------------|
B|--15--15-17-20p--15---------------------|
G|---------------------16--14----16-14----|
D|----------------------------17-------17-|
A|----------------------------------------|
E|----------------------------------------|

     |----3---|   |---3---|
     E    E   E   E   E   E   S  S S  S S
e|--14p--10-------------------------------|
B|----------------------------------------|
G|-----------14--12----------11p-9-9p-7---|
D|-------------------14--12-------------9-|
A|----------------------------------------|
E|----------------------------------------|

     |---3--|
     E  E   E  E   E  H
e|-----------------------------|
B|-----------------------------|
G|-----------------------------|
D|-----------------------------|
A|--10--7----------------------|
E|---------10--7p--0--L--------|

     E   E   E   E  H
e|--12-----------------------|
B|------15--12--13--L--------|
G|---------------------------|
D|---------------------------|
A|---------------------------|
E|---------------------------|

     E   E   E   E  E   Q     E
e|-------------------------------|
B|--15--13--12---------------12--|
G|--------------14--L--14--------|
D|-------------------------------|
A|-------------------------------|
E|-------------------------------|

     |-----3-----|     |-----3-----|
     Q     Q     Q     Q     Q     Q
e|--------------------------------------|
B|--------13----------15----------17----|
G|--16----------17----------19----------|
D|--------------------------------------|
A|--------------------------------------|
E|--------------------------------------|

     E   E    E   E  Q     Q
e|---------------19--L----15----|
B|--17--19h--20-----------------|
G|------------------------------|
D|------------------------------|
A|------------------------------|
E|------------------------------|

     Q     Q     Q     E   E
e|--------15----15--------15--|
B|--19----------------19------|
G|----------------------------|
D|----------------------------|
A|----------------------------|
E|----------------------------|

     |---3---|   |---3---|   |---3---|   |
     E   E   E   E   E   E   E   E   E   E
e|------15------15------15------15------15-|
B|----------------------------------17-----|
G|--19----------------------17-------------|
D|----------19------17---------------------|
A|-----------------------------------------|
E|-----------------------------------------|

     |---3---|   |---3---|   |-----3-----|
     E   E   E   E   E   E   Q     Q     Q
e|------15------15------15--------15-------|
B|------------------17------19----------19-|
G|--19------17-----------------------------|
D|-----------------------------------------|
A|-----------------------------------------|
E|-----------------------------------------|

     E   E   E   Q    E   E   E
e|--17--19--20--19----L\---------|
B|-------------------------------|
G|-------------------------------|
D|-------------------------------|
A|---------------------------14--|
E|-------------------------------|

     E   E   E   E   E   Q     E
e|--------------------------------|
B|------------------15--17--------|
G|--------------16----------------|
D|------14--17--------------------|
A|--15------------------------18--|
E|--------------------------------|

     E   E   E   E   E   E   Q
e|----------------------16--17----|
B|--------------16--17------------|
G|----------17--------------------|
D|--16--19------------------------|
A|--------------------------------|
E|--------------------------------|

     H.             Q
e|--19~------------20----|
B|-----------------------|
G|-----------------------|
D|-----------------------|
A|-----------------------|
E|-----------------------|

     E     H           E    E    E
e|--22~--(22)s----------------------|
B|----------------------------------|
G|----------------------------------|
D|--------------------14s--12s--14--|
A|----------------------------------|
E|----------------------------------|

     E   E   E   E    E   E   E   E
e|------------------------------------|
B|------------------------------------|
G|--17------14--17S--16------12--16S--|
D|------14---------------12-----------|
A|------------------------------------|
E|------------------------------------|

     E   E   E   E   E   E   E   E
e|-----------------------------------|
B|-----------------------------------|
G|--14------11--14------11--12--14S--|
D|------12----------12---------------|
A|-----------------------------------|
E|-----------------------------------|

     E   E   E   E    E   E   E  E
e|----------------------------------|
B|----------------------------------|
G|--16------12--16S--14------11-----|
D|------12---------------12---------|
A|----------------------------------|
E|----------------------------------|

     E   E   E   E   H
e|-----------------------------|
B|-----------------------------|
G|--12--11---------------------|
D|----------14--12-------------|
A|------------------14~--------|
E|-----------------------------|

     E   E   E   E    E   E   E   E
e|------------------------------------|
B|------------------------------------|
G|--17------14--17S--16------12--16S--|
D|------14---------------12-----------|
A|------------------------------------|
E|------------------------------------|

     E   E   Q        Q     E   E
e|-------------------------12------|
B|----------15brb~----L--------15--|
G|--14-----------------------------|
D|------12-------------------------|
A|---------------------------------|
E|---------------------------------|

     E   E     E   E   E    E   E   E
e|--12-----------------------------12--|
B|---L---------------------12--15------|
G|------14br--14--12--14b--------------|
D|-------------------------------------|
A|-------------------------------------|
E|-------------------------------------|

     E   E   E   E   H
e|------14--15--17--19~--------|
B|--17-------------------------|
G|-----------------------------|
D|-----------------------------|
A|-----------------------------|
E|-----------------------------|

     E   E   E   E    E   E   E   E
e|--20------17--20S--19------15--19S--|
B|------17---------------15-----------|
G|------------------------------------|
D|------------------------------------|
A|------------------------------------|
E|------------------------------------|

     E   E   E   E   E   E   E   E
e|--17------14--17------14--15--17S--|
B|------15----------15---------------|
G|-----------------------------------|
D|-----------------------------------|
A|-----------------------------------|
E|-----------------------------------|

     E   E   E   E    E   E   E  E
e|--19------15--19S--17------14-----|
B|------15---------------15---------|
G|----------------------------------|
D|----------------------------------|
A|----------------------------------|
E|----------------------------------|

     E   E   E   E   H
e|--15--14--12-----------------|
B|--------------15-------------|
G|------------------16~--------|
D|-----------------------------|
A|-----------------------------|
E|-----------------------------|

     E   E   E   E    E   E   E  E
e|----------------------------------|
B|----------------------------------|
G|--17------14--17S--16------12-----|
D|------14---------------12---------|
A|----------------------------------|
E|----------------------------------|

     S   S   S  S  S E.   H
e|--14h-17p-14---------------------|
B|-------------15------------------|
G|----------------14---------------|
D|-------------------0~---0--------|
A|---------------------------------|
E|---------------------------------|

     E   E   E   E    E   E   E  E
e|----------------------------------|
B|----------------------------------|
G|--16------12--16S--14------11-----|
D|------12---------------12---------|
A|----------------------------------|
E|----------------------------------|

     E   E  E  E  E  E  E  E
e|----------------------------|
B|-------------------------7--|
G|--12--11--9-----------7-----|
D|-------------9--7--7--------|
A|----------------------------|
E|----------------------------|

    E  E   E  E  E  E   E  E
e|----------------------------|
B|--8------------8------------|
G|-----7p--0--0-----9p--0--0--|
D|----------------------------|
A|----------------------------|
E|----------------------------|

    E   E   E  E  E  E   E  E
e|-----------------------------|
B|--8-------------8------------|
G|-----11p--0--0-----9p--0--0--|
D|-----------------------------|
A|-----------------------------|
E|-----------------------------|

    E  E   E  E  Q.     E
e|-------------------------|
B|--8------------8---------|
G|-----7p--0--0---------7--|
D|-------------------------|
A|-------------------------|
E|-------------------------|

    E  E   E  E   Q.     E
e|--8--8p--7-----10---------|
B|------------8-------------|
G|-----------------------0--|
D|--------------------------|
A|--------------------------|
E|--------------------------|

    E  E   E  E  E  E   E  E
e|----------------------------|
B|--8------------8------------|
G|-----7p--0--0-----9p--0--0--|
D|----------------------------|
A|----------------------------|
E|----------------------------|

    E   E   E  E  Q    Q
e|--------------------------|
B|--8-------------8---------|
G|-----11p--0--0------------|
D|--------------------------|
A|--------------------------|
E|--------------------------|

     H             S  S  S  S  S  S  S  S
e|----------------15-------15-20-19-15----|
B|--18brb~-----------15-17-------------17-|
G|----------------------------------------|
D|----------------------------------------|
A|----------------------------------------|
E|----------------------------------------|

     S  S  S  S  S  S  S  S  S  S  S  S  S
e|--17-15----15-14----------15-14-------12-|
B|--------17-------17-15-13-------15-14----|
G|-----------------------------------------|
D|-----------------------------------------|
A|-----------------------------------------|
E|-----------------------------------------|

     S  S  S  S  S  S    E   S  S  S  S
e|-----------------------------10-12----|
B|--13-12-------------------12-------12-|
G|--------14-12-10-14brb-L--------------|
D|--------------------------------------|
A|--------------------------------------|
E|--------------------------------------|

                          ^
     S  S S  S S  S   E   H
e|---------------------------------|
B|--10-----------------------------|
G|-----12-9--------------12--------|
D|----------12-9---------12--------|
A|---------------12p-10--10--------|
E|---------------------------------|

    W                   W
e|-------------------|-------------------|
B|-------------------|-------------------|
G|--L----------------|--L----------------|
D|--L----------------|--L----------------|
A|--L----------------|--L----------------|
E|-------------------|-------------------|

    W                   W
e|-------------------|-------------------|
B|-------------------|-------------------|
G|--L----------------|--L----------------|
D|--L----------------|--L----------------|
A|--L----------------|--L----------------|
E|-------------------|-------------------|

    W
e|-------------------||
B|-------------------||
G|--L----------------||
D|--L----------------||
A|--L----------------||
E|-------------------||



************************************

| b    Bend
| p    Pull-off
| br   Bend release
| h    Hammer-on
| ~    Vibrato
| (n)  Ghost note
| P    Pop
| *    Natural harmonic
| /    Slide up
| g    Grace note
| pbr  Pre-bend release
| \    Slide down
| s    Slide  


Duration Legend
---------------
W - whole
H - half
Q - quarter
E - 8th
S - 16th
T - 32nd
X - 64th
. - note dotted
|-n-|  - n-tuplets

************************************
Suggest correction
comments
print report bad tab
guest
You may want to rate the tab now too:
select rating
Wanna post a correction for this tab? Suggest correction