Oops, an error
Loading. Please wait.

Manhattan Tab

version 1
version 1

Whole song

Interactive

90,242 views 69 this week
7 commentsread comments
1 2 3 4 5
x 10
add to favorites
launch autoscroll
font size
0
reset
how to read this tab
guitar tuner
Autoscroll
slow
fast
+/-
esc
set tempo
stop
Help us to improve Ultimate-Guitar.com Take our survey!
×
Author
song title:manhattan
artist:eric johnson/venus Isle
tab by:josh nerez
any comments suggestion e-mail joshnerez@yahoo.com for locals & kababayan text
him 09198244396 or text me 09193216020 but its better to text/email him he's greater than me

e|---12---10-----------------------------------------------7------------12--|
B|-------------/12-------8-/12------------8h10p8----8/-10-----8-------------|
G|----9----7--------9----------------------------7--7/-9------7----------9--|
D|-------------/9--------5--/9----------------------------------------------|
A|------------------7-----------------7-----------------------7-------------|
E|--------------------------------------------------------------------------|

e|-10------------------------|
B|-----/12----8---10---------|
G|--7-----------------/9-----|
D|-----/9-----5----7---------|
A|--------------------/7-----|
E|---------------------------|

e|------------H------------------------12---10-----------------------------5-|
B|---------12-13------8/10\8--------------------/12-------8--/12--------8----|
G|---------12---------------------------9----7--------9-----------------5--7-|
D|-------------------10/12\10--------------------/9-------5---/9-------------|
A|-----10---------------------------------------------7----------------------|
E|---------------------------------------------------------------------------|


e|--7--------5------------|
B|--5--------3------------|
G|-----------4------------|
D|--------0---------------|
A|------------------------|
E|------------------------|

    00:19
e|-----------------------------------------------------------------------12-|
B|--------------------------------------------------------------------------|
G|------------12--12H14P12---11-------------12---11---9---7---9----------9--|
D|---------14-------------------12--14------------------9---7-9-------------|
A|------14----------------------------------10----9---7---5---7-------------|
E|--------------------------------------------------------------------------|


e|--10---------------------|
B|--------/12------8--/12--|
G|---7--------9------------|
D|---------/9------5--/9---|
A|------------7------------|
E|-------------------------|


                                    ^2
e|-----/12-------------------------------------------------------------------|
B|-----/12--------------7----------13--------------------------------------8-|
G|-------------------7-----9-----------12------------------------------11----|
D|----------------7------------------------14--12----------------------12----|
A|------------10-----------10-----------------------14--12--14--10-----------|
E|---------------------------------------------------------------------------|


e|-----------------------|
B|----8------------------|
G|----9------------------|
D|---10------------------|
A|-----------------------|
E|-----------------------|


e|------12---10-------------------------------5---7--------5-----------------|
B|---------------/12-------8---/12---------8------5--------3-----------------|
G|-------9----7--------9-------------------5--7---7--------4--------------12-|
D|---------------/9--------5---/9-----------------------0--------------14----|
A|---------------------7--------------------------------------------14-------|
E|---------------------------------------------------------------------------|


e|------------------------|
B|------------------------|
G|--12H14---12--11--------|
D|-----------------12--14-|
A|------------------------|
E|------------------------|


e|------------------------------------------------x-------X------X-----------|
B|------------------------------12--13/15---/12---8-------8------8---------8-|
G|------12---11--9---7---9------------------------5-------5------5-----9-----|
D|-----------------9---7-9-------9--10/12---/9----7-------7------7---------5-|
A|------10---9---7---5---7------------------------0-------X------5-----7-----|
E|------------------------------------------------x-------8------X-----------|

e|-----------------------|
B|--10/12/13\12----------|
G|-----------------------|
D|---7/9/-10\9-----------|
A|-----------------------|
E|-----------------------|


e|------X------X------X------X-----------------------------------X-------X--|
B|------8------8------8------8---------12--13/15----17-----------8-------8--|
G|------5------5------5------5-------------------------/16-------5-------5--|
D|------7------7------7------7----------9--10/12----14-----------7-------7--|
A|------0------0------X------5-------------------------/14-------0-------0--|
E|------X------X------8------X-----------------------------------X-------X--|


e|----X-------X----------|
B|----8-------8----------|
G|----5-------5----------|
D|----7-------7----------|
A|----X-------5----------|
E|----8-------X----------|


e|------------------------------------------------------------------------12-|
B|------------------------------------------12---10--------------------------|
G|-------------12--12H14-12---11----------------------12---11---9----------9-|
D|---------14---------------------12---14----9----7-------------9------------|
A|-----14---------------------------------------------10---9----7------------|
E|---------------------------------------------------------------------------|


e|---10------------------|
B|--------12--------8----|
G|----7---------9--------|
D|---------9--------5----|
A|--------------7--------|
E|-----------------------|


                             ^2       01:04


e|-------------/12---------------------------12------------------------------|
B|-----/12-----/12------------------13--15-------15--13----------------------|
G|-----------------------------14------------------------14/16------12H14P12-|
D|-----/9------------------12-----------------------------------14-----------|
A|---------------------------------------------------------------------------|
E|---------------------------------------------------------------------------|


  HARP ARPEGGIO
e|-----------------------|
B|-----------------------|
G|---??!!!!????????------|
D|-----------------------|
A|-----------------------|
E|-----------------------|

   dist
e|-----12---10--------------------------------------------------------------|
B|--------------/12---------8---/12------12---10---8------------------------|
G|-----9----7----------9-----------------12---9----7------------11-12--14---|
D|--------------/9----------5---/9-------10---10----------------------------|
A|---------------------7---------------------------7---------12-------------|
E|--------------------------------------------------------10----------------|

e|-----------------------|
B|-----------------------|
G|-12--11----------------|
D|---------12--14--------|
A|-----------------------|
E|-----------------------|


      CLEAN
e|-------------------10---12-------------------------------X-------X------X-|
B|-----8---10--/12---10---12----------12--13/15---/12------8-------8------8-|
G|-----7---9---/11---7----9--------------------------------5-------5------5-|
D|-----5---7---/9---------------------9---10/12---/9-------7-------7------7-|
A|---------------------------------------------------------0-------0------X-|
E|---------------------------------------------------------X-------X------8-|

e|----X------------------|
B|----X------------------|
G|----8------------9-----|
D|----5------------------|
A|----7------------7-----|
E|----5------------------|

e|-------------------------------X--------20---19---17---15---12---14---15--|
B|------8---10/12/13\12----------8------------------------------------------|
G|-------------------------------5------------------14---12---12---14---12--|
D|------5---7/-9/-10-\9----------7--------19---17------------------12-------|
A|-------------------------------0----------------------------12--------12--|
E|-------------------------------X------------------------------------------|


e|----x------x-----------|
B|----8------8-----------|
G|----5------5-----------|
D|----7------7-----------|
A|----x------5-----------|
E|----8------x-----------|


01:36

e|--------------------------------------------------------------10----7-----|
B|------------------------------------------------8---10--/12---10----x-----|
G|--------------12--12p14---12-----11-------------7---9---/11---7-----9-----|
D|----------14-------------------------12---14----5---7---/9----------7-----|
A|------14------------------------------------------------------------7-----|
E|--------------------------------------------------------------------x-----|


[Solo]
e|-----------------------|
B|-----------------------|
G|---------------16------|
D|-------14--17----------|
A|---17------------------|
E|-----------------------|


e|----------15--17--19-------17--15--19--------------------15--19--17-----15-|
B|------17---------------------------------------------17--------------------|
G|---------------------------------------------14--16------------------------|
D|---------------------------------------------------------------------------|
A|---------------------------------------------------------------------------|
E|---------------------------------------------------------------------------|


e|--17---15/17\15---------|
B|------------------------|
G|------------------------|
D|------------------------|
A|------------------------|
E|------------------------|

                    ^2                              ^2

e|----------------------------------------------------------------12---------|
B|------17---15------15---17----15------17----------------12--15------15--12-|
G|---------------16-----------------14----------------14---------------------|
D|---------------------------------------------------------------------------|
A|--------------------------------------------12--14-------------------------|
E|---------------------------------------------------------------------------|


e|------------------------|
B|------------------------|
G|--14--12----------------|
D|----------14------------|
A|------------------------|
E|---------------15--12---|


        ^2
e|---------------------------------------------------------------------12-15-|
B|-----------------------------------------------------------------12--------|
G|------14--14--12-----------12--------------------------------12------------|
D|------------------------------------14-------------------14----------------|
A|-------------------------------------------------10--14--------------------|
E|-------------------12--12----------------10--12----------------------------|


e|--------17/19----17----|
B|-----------------------|
G|-----------------------|
D|-----------------------|
A|-----------------------|
E|-----------------------|


e|------16-----12--14------12-------------------13P12P10--12P10-------------|
B|---------------------14------12--14------12--------------------13-12------|
G|-------------------------------------13-----------------------------------|
D|--------------------------------------------------------------------------|
A|--------------------------------------------------------------------------|
E|--------------------------------------------------------------------------|


e|-----------------------|
B|----15--12-------------|
G|/14----------12--------|
D|----------------13-----|
A|-----------------------|
E|-----------------------|


                                  01:57
e|--------------------------------------------------------------------------|
B|-----------------11-------------------------------------------------------|
G|---------------------12-----------14----------14------11------------------|
D|-------------------------13---10------14--12--------------12--------------|
A|------15--14--------------------------------------------------14----------|
E|--------------------------------------------------------------------------|


e|-------------------12--|
B|---------------12------|
G|------------9----------|
D|----5--7/9-------------|
A|-7---------------------|
E|-----------------------|


          ^2
e|---------------17-16------------------------------------------------------|
B|-------15------------17-19------------------------------------------------|
G|---------------------------18-16-------16----------------------------/19--|
D|---------------------------------19-16----19-16---------------------------|
A|-------------------------------------------------19-16-14-----------------|
E|-----------------------------------------------------------17-14----------|


e|-----19-22-19-------19-|
B|20-22---------22-20----|
G|-----------------------|
D|-----------------------|
A|-----------------------|
E|-----------------------|

e|---------------------------------------------------------------------------|
B|-------22-20----20---------------------------------------------------------|
G|-------------21----21-19----21-19-------------19-16------------------------|
D|-------------------------21-------21-19-17----------19-17------------------|
A|-------------------------------------------19--------------19-17--14-------|
E|----------------------------------------------------------------------15---|


           ^2     ^2*
e|-----------------------|
B|--------15--12---------|
G|---------------14------|
D|-----------------------|
A|-----------------------|
E|12---------------------|
   *Begin note bent ^2

                   ^2
e|------------------------------------15/17---15--------------------15--17---|
B|----------------15--------------17---------------17-----------17-----------|
G|-------12--------------------16---------------------------16---------------|
D|------------14-------------------------------------------------------------|
A|------------------------------------------------------16-------------------|
E|---------------------------------------------------------------------------|

              ^1/2    ^2
e|19----------14--12-----|
B|---17---------------15-|
G|-----------------------|
D|-----------------------|
A|-----------------------|
E|-----------------------|


  end solo
                   02:16
e|---------------------7------------7-8-7----------------7------------10----|
B|------------------8-----10-----8---------10---------8-----10-----8--------|
G|----------------------------9-----------------7--9------------9-----------|
D|--------7--9--10----------------------------------------------------------|
A|--------------------------------------------------------------------------|
E|--------------------------------------------------------------------------|

e|------------7----------|
B|---------8------10-----|
G|-----------------------|
D|-9--10-----------------|
A|-----------------------|
E|-----------------------|


                                  played w/ slide
  02:13
e|----------------7-8-7---------------------------11--9--7-----12--14--15---|
B|-------------8---------10------12--10--12---12----------------------------|
G|---------9----------------------------------------------------------------|
D|--------------------------------------------------------------------------|
A|--------------------------------------------------------------------------|
E|--------------------------------------------------------------------------|


-----12--17------------|
--12---------17/19-----|
-----------------------|
-----------------------|
-----------------------|

e|---------------------------------------------------------------------------|
B|--------15------15-------------14/16--12-----------------------------14/16-|
G|------------14------16\14/16--------------14--12-------------9--11---------|
D|--------------------------------------------------------7/9----------------|
A|---------------------------------------------------------------------------|
E|---------------------------------------------------------------------------|


e|----------12--14--15---|
B|\14--12----------------|
G|-----------------------|
D|-----------------------|
A|-----------------------|
E|-----------------------|


            3:05
                  *
e|------------12---17-------------------------------------------------------|
B|--------12-----------17/19---15------15----------15--------------------10-|
G|---------------------------------14------16----------14/15\14---12--------|
D|--------------------------------------------------------------------------|
A|--------------------------------------------------------------------------|
E|--------------------------------------------------------------------------|
                                *make ^ octave
harmonics with index
 *   *        *                   finger of picking
hand
---------10-------------|
------------------------|
-12---------------------|
-----14-------10--------|
------------------------|
------------------------|


  ^2*
e|-------------------7-------------------------7--8-------------------7------|
B|-------8----------------10----8----------8-----------------------------11\-|
G|-------------------7----------------7H9------7------14----12--------7------|
D|-----------9--10--------------------9---------------12----10---------------|
A|---------------------------------------------------------------------------|
E|---------------------------------------------------------------------------|
                               *ONLY BEND 3rd STG UP 2
AND RELEASE

e|------------------------|
B|10---8--------8---8-----|
G|-----------7H9----7-----|
D|-----10---10------9-----|
A|------------------------|
E|------------------------|


                 03:28
e|---------10---------7--------------------------------10------12------12---|
B|-----8------------------11\10--8-----------8-----12-------15-----15-------|
G|-----7--------------7----------9------7H9---------------------------------|
D|----10-------------------------------10----------12-----------------------|
A|----------------------------------------------------------15--------------|
E|--------------------------------------------------------------------------|


e|---10----10------5------|
B|----8-----8------5------|
G|----7-----7------7------|
D|----9----10------X------|
A|-----------------X------|
E|-----------------7------|

e|-------X-------X------X----------------------------------X-------------X--|
B|-------8-------8------8-------------8----10/12/13\12-----8-------------8--|
G|-------5-------5------5--------9-------------------------5--------7----5--|
D|-------7-------7------7-------------5----7-/9-/10\12-----7-------------7--|
A|-------0-------X------5--------7-------------------------0-------------5--|
E|-------X-------8------X----------------------------------X--------8----X--|


e|-----------------------|
B|-----12--13/15---17----|
G|-----------------------|
D|-----9---10/12---14----|
A|-----------------------|
E|-----------------------|

        03:43
                                           ^2
     ^2  2\
e|-------------X------X------X------------------------12--------------------|
B|-------------8------8------8------------------15---------15---------------|
G|-----/16-----5------5------5-------------14------------------14---14---12-|
D|-------------7------7------7---------12-----------------------------------|
A|-----/14-----0------X------5----------------------------------------------|
E|-------------X------8------X----------------------------------------------|


e|-----------------------|
B|-----------------------|
G|-----------12----------|
D|--14---12-------14-----|
A|-----------------------|
E|-----------------------|


                        DIST   03:51

e|------X------X------5--------------12---14\15---12-----------12-----------|
B|------8------8------5---------10---------------------15\13-------15----10-|
G|------5------5------7-----------------------------------------------------|
D|------7------7------7-----10----------------------------------------------|
A|------X------5------5-----------------------------------------------------|
E|------8------X------5-----------------------------------------------------|

   ^2
e|-----------------------|
B|-----------------------|
G|-12---9---7------------|
D|-----------------------|
A|-----------------------|
E|-----------------------|


               03:58
e|----------------------------------------15--------------------------------|
B|-----------------------12-/13---15--15------------------------------------|
G|-------------------------------------------------------------12--14/16\14-|
D|-------------------12-----------------------------------------------------|
A|------7--9--10---------------------------------12--14--15-----------------|
E|--------------------------------------------------------------------------|


e|-----------------------|
B|--------------8--10----|
G|--------7--9-----------|
D|-----------------------|
A|----/7-----------------|
E|-----------------------|


e|------10--8--7---------------------15--12---------------------------------|
B|------------------------12\13--15-----------15--13--12--------------------|
G|---------------------------------------------------------14--14H15P14--12-|
D|--------------------14----------------------------------------------------|
A|--------------------------------------------------------------------------|
E|--------------------------------------------------------------------------|


e|-----------------------|
B|-----------------------|
G|-----------------------|
D|---------------7---10--|
A|-------7--10-----------|
E|----8------------------|


e|---------------------------------------------------------------15-17----15-|
B|---------8--12-------------------------------------------15-17-------------|
G|------9-----------------------------------------------16-------------------|
D|------------------------------------------------14-17----------------------|
A|---------------------------14H15P14-----14--17-----------------------------|
E|-------------------/12--15----------17-------------------------------------|


e|--------15-------------|
B|--17-15----17-15-------|
G|-----------------------|
D|-----------------------|
A|-----------------------|
E|-----------------------|

                       CLEAN
e|---------------------X------X---------------------------------X-----------|
B|---------------------8------8-----------8---10-/12/13\12------8-----------|
G|-----16-14-12--------5------5------9--------------------------5--------7--|
D|---------------------7------7-----------5---7---/9/10\9-------7-----------|
A|---------------------X------5------7--------------------------0-----------|
E|---------------------8------X---------------------------------X--------8--|


e|--X--------------------|
B|--8--------------------|
G|--5--------------------|
D|--7--------------------|
A|--5--------------------|
E|--X--------------------|


   04:15
e|------13---13--12--12-11--11---/10----/7------X-----X------X--------------|
B|------11---11--10--10-9---9----/8-------------8-----8------8--------------|
G|--------------------------------------/9------5-----5------5---------9----|
D|------11---11--10--10-9---9----/10----/9------7-----7------7--------------|
A|----------------------------------------------0-----X------5---------7----|
E|----------------------------------------------X-----8------X--------------|


e|10/12\10--12-------------|
B|--------------/12--------|
G|-7/9\-7---9---------9----|
D|--------------/9---------|
A|--------------------7----|
E|-------------------------|

e|-----X----X-----5----------------------------------------------------------|
B|-----8----8-----8----------------------------------------------------------|
G|-----5----7-----5-------------12--12H14-12--11----------------12---11--9---|
D|-----7----5-----7---------14--------------------12--14-------------------9-|
A|-----0----X-----5------14-------------------------------------10---9---7---|
E|-----X----8-----X----------------------------------------------------------|


e|-----------------------|
B|-------5----5----------|
G|-7-------------4-------|
D|---7-------------------|
A|-5---------------------|
E|-------5----4----------|


       04:33
              *
e|-----------------------------------------------10----------15-----------17-|
B|-----3-------3---------------------10----12-----------17-------------19----|
G|---------2-------2----0-------12---------12------------------------19------|
D|------------------------------14---------10------------------------19------|
A|-------------------------------------------------------------------17------|
E|-----3-------2--------1-------12-------------------------------------------|


tabbed:by josh nerez

                                    End



************************************

| h  Hammer-on
| p  Pull-off
| /  Slide up
| \  Slide down
| x  Dead note

************************************
Suggest correction
comments
print report bad tab
7 comments total. Showing first comments.
0 reply
justinp93 20 Jun 26, 2006 05:04 PM

good stuff.

0 reply
i<3myteli 10 Sep 18, 2006 10:41 AM

this is a nice tab, love the song

0 reply
thejames07 10 Aug 06, 2007 05:03 PM

Wrong key

guest
You may want to rate the tab now too:
select rating
Wanna post a correction for this tab? Suggest correction