Oops, an error
Loading. Please wait.

Dueling Banjos tab

version 3
version 3

Whole song

Interactive

5,098 views 1 this week
no commentswrite comment
1 2 3 4 5
2 more votes to show rating
add to favorites
×
Save as Personal and add changes to this tab that will be seen only by you. Learn more ›
×
You can save this tab as Personal to edit and correct it or add notes. All changes will be seen only by you. Learn more »
launch autoscroll
font size
0
reset
how to read this tab
guitar tuner
edit
Autoscroll
slow
fast
+/-
esc
set tempo
stop
Author
This is an aucustic tab.
I don't have the banjo version.

play the tab faster and faster


Please be to nice me, it's my first tab.

normal tuning:
E
B
G
D
A
E


    X2
|--------------------|
|--------------------|
|---------0----------|
|--------0-----------|
|-------2------------|
|------3-------------|

    G G G C/g G
|--------------------|
|--------------------|
|---0-0-0-0--0-------|
|---0-0-0-2--0-------| the the banjo play's the same
|---2-2-2-3--2-------|
|---3-3-3-3--3-------|


        X2
|-----------------------|
|--0-1-3-0-1---0--------|
|------------2----0--2--| then the banjo play's the same
|-----------------------|
|-----------------------|
|-----------------------|

        X3
|-------------------------|
|-------------------------|
|-------------------------| then the banjo play's the same
|-------------0-----------|
|-------0-2-3---3-2-------|
|-3-3-3-------------------|


|---------------------------|
|---------------------------|
|-----------0-2-0-----------| then the banjo play's the same
|-0-0-0-2-4-------4---------|
|---------------------------|
|---------------------------|

now it's max speed, and same speed further on

|--------------------|
|--------------------|
|---0-0-0-0--0-------|
|---0-0-0-2--0-------| the banjo play's the same
|---2-2-2-3--2-------|
|---3-3-3-3--3-------|

|--------------------|
|--------------------|
|---0-0-0-0--0-------|
|---0-0-0-2--0-------| the banjo play's the same
|---2-2-2-3--2-------|
|---3-3-3-3--3-------|


                                                          C                 G
|----------|--------------|-----------|-------------|---------------|--------|
|-------0-1|3-0-1---0-----|----0------|----0--------|---------------|--------|
|----------|------2---0-2-|0-2---0-2--|0-2---0------|----0--2-0-----|--0---3-|
|----------|--------------|----------0|---------3---|-2----------2p0|----2---|
|----------|--------------|-----------|---------0--2|3----3---------|--------|
|----------|--------------|-----------|-------------|---3-----------|3-------|

                       D                      G                  C
-------------|----------------------|-----------------------|-----------|
-------------|--2h3---3---2h3-------|----------0-----0------|-----------|
----2h3p2p0--|------------------3p2-|---0--2h3---2h3------0-|-------0---|
--0----------|0---------0-----------|---0--------------0h2--|---2-------|
------------0|------0----------0----|-----------------------|-3-------3-|
-------------|----------------------|-3---------------------|-----3-----|

                  G                    D                        G
---------|-------------------|----------------------|--------------3------|
---------|-------------------|---2h3----3-3-3-------|--------------0------|
-2-0-----|--0---3---2h3p2p0--|--------------------0-|---0-----0----0------|
------2p0|----2---0----------|-0---------------0h2--|-----0h2-------------|
---------|------------------0|-------0--------------|---------------------|
---------|3------------------|----------------------|--3--------3------3-3|

      G
------------------|------------------|------------------|------------------|
------------------|-----0-1-3-1-0----|------------------|-----0-1-3-1-0----|
---------------0-0|-0-2--------------|---------------0-0|-0-2--------------|
---------0--------|------------------|---------0--------|------------------|
---0-2-3---3-2----|------------------|---0-2-3---3-2----|---------------3-3|
-3----------------|---------------3-3|-3----------------|------------------|


------------------|----0-1-3-1-0-----|------------------|------------------|
---------------1-1|-1-3--------------|------------------|-----0-1-3-1-0----|
---------0--------|------------------|---------------0-0|-0-2--------------|
---0-2-3---3-2----|------------------|---------0--------|---------------0-0|
-3----------------|------------------|---0-2-3---3-2----|------------------|
------------------|---------------3-3|-3----------------|------------------|


------------------|---0-2-3-5-3-2----|----------------------|
---------------3-3|-3----------------|----------------------|
-------0-2-0------|------------"--0-0|-0-0-0-"--------------| then the banjo play's
-0-2-4-------4----|------------"--0-0|-0-2-0-"--- this -----| "  " but in the
------------------|------------"--2-2|-2-3-2-"--------------| banjo way ;P
------------------|------------"--3-3|-3-3-3-"--------------|


------------------|------------------|
------------------|------------------|
------------------|------------------|
------------------|-0----------------|
--------------2-3-|---2-3-0-2---0----|
------------------|-----------3------|

and the same again |
                   |
                   V

                                                            C               G
|----------|--------------|-----------|-------------|---------------|--------|
|-------0-1|3-0-1---0-----|----0------|----0--------|---------------|--------|
|----------|------2---0-2-|0-2---0-2--|0-2---0------|----0--2-0-----|--0---3-|
|----------|--------------|----------0|---------3---|-2----------2p0|----2---|
|----------|--------------|-----------|---------0--2|3----3---------|--------|
|----------|--------------|-----------|-------------|---3-----------|3-------|

                       D                      G                  C
-------------|----------------------|-----------------------|-----------|
-------------|--2h3---3---2h3-------|----------0-----0------|-----------|
----2h3p2p0--|------------------3p2-|---0--2h3---2h3------0-|-------0---|
--0----------|0---------0-----------|---0--------------0h2--|---2-------|
------------0|------0----------0----|-----------------------|-3-------3-|
-------------|----------------------|-3---------------------|-----3-----|

                  G                    D                        G
---------|-------------------|----------------------|--------------3------|
---------|-------------------|---2h3----3-3-3-------|--------------0------|
-2-0-----|--0---3---2h3p2p0--|--------------------0-|---0-----0----0------|
------2p0|----2---0----------|-0---------------0h2--|-----0h2-------------|
---------|------------------0|-------0--------------|---------------------|
---------|3------------------|----------------------|--3--------3---------|

                                                                The End.
----------------------|---0-0---0---0-0---0-|-------------------|--3----|
-------------------0--|-1-----1---1-----1---|-------------------|--0----|
---------------0-2----|---------------------|-2-0---------------|--0----|
-------------2--------|---------------------|-----4-2-0---------|--0----|
----------------------|---------------------|-----------3-2-0---|--2----|
----------------------|---------------------|-----------------3-|--3----|
Suggest correction
Creating personal tab
Creating personal tab
You can edit any tab online and save it as your Personal.

You can edit, replace or remove any tab part or add personal notes – all changes will be seen only by you.

Personal tabs can be accessed anytime from any device, even offline.
Learn more »
Give kudos to tab author, rate the tab!
1 2 3 4 5
comments
print report bad tab
guest
You may want to rate the tab now too:
select rating
Wanna post a correction for this tab? Suggest correction